Dave Matthews Band - Lie In Our Graves Chords & Tabs

 

Lie In Our Graves Chords & Tabs

Dave Matthews Band Chords & Tabs

Version: 2 Type: Tab 2 ratings
1 star 2 stars 3 stars 4 stars 5 stars
comments

Lie In Our Graves Tab

Dave Matthews Band 
Lie in our Graves
Verse

E:-2--------x--------------------------
B:-3--------x--------------------------
G:-2--------x-----------2--------4--4--
D:-0--------x--0--2--4-----4-----2--2--
A:----4--2--x--------------------------
E:----------x-----------------3--------
 




E:-2----------------------------------------
B:-3--------------------1-------------------
G:-2----------2---------2--0h2--0-----------
D:-0-0--2--4-----4--0---2----------4--2--4--
A:------------------------------------------
E:------------------------------------------
     

First small jam
[ Tab from: http://www.guitartabs.cc/tabs/d/dave_matthews_band/lie_in_our_graves_tab_ver_2.html ]
E:----------------0----2-----------
B:----------------1----3-----------
G:-5--5\7--5--7---2----4----5---4--
D:-x--x----x--x---2----4----x---x-- x2
A:-3--3\5--3--5---0----2----3---2--
E:---------------------------------


Long Jam 

E:-------------------------
B:-------------------------
G:-11---9---7---4---4---6-- 
D:-x----x---x---x---x---x--
A:-x----x---x---x---x---x--
E:-10---9---7---3---3---5-- 


Long Jam Middle

Played when jam starts to get fast

E:-------------------------
B:-------------------------
G:-12---7---6---2---2---4-- 
D:-x----x---x---x---x---x--
A:-x----x---x---x---x---x--
E:-12---7---5---2---2---3-- 

Long Jam End Variation

E:--------------------------------
B:--------------------------------
G:-11---9-12-11-9--8---4---4---6-- 
D:-x----x----------x---x---x---x--
A:-x----x----------x---x---x---x--
E:-10---9----------8---3---3---5-- 
Comments