Dave Matthews Band - Let You Down Chords & Tabs

 

Let You Down Chords & Tabs

Dave Matthews Band Chords & Tabs

Version: 1 Type: Tab 0 ratings
1 star 2 stars 3 stars 4 stars 5 stars
comments

Let You Down Tab

---------------------------------------------------------------------
	           Let You Down - Dave Matthews Band
---------------------------------------------------------------------

(whole song...? It's really more of a work in progress.  This isn't what dave 
plays but it sounds good when you sing along.)
Standard tuning

Chorus:
"I have no lid upon my head but if I did..."
e|--------------------------------------------------------------|
B|-8---8------7-----------10--10----7-----7----12-----10--------|
G|-0-----0--------7--------------------7--------0---------------|
D|------------------7----------------------------------0--------|
A|-7----------5------------0--------5---------------------------|
E|----------------------------------------------0-----10--------|
[ Tab from: http://www.guitartabs.cc/tabs/d/dave_matthews_band/let_you_down_tab.html ]
"You could look inside and see what's on my mind..."
e|------------------------|
B|--8----7--------7-------|
G|--0-------0--7-------9--|
D|--------------------10--|
A|-------5----------------|
E|--0------------------8--|

"And oh it's you..."
e|-----------------------|
B|--8--7-----------------|
G|--0--7--6-----6--7--6--|
D|-----------7-----7--7--|
A|--7--5-----------------|
E|--------5--------5--5--|


Play around with something like this through the verses
e|-----------------------|-----------------------|
B|--8--7-----------------|--8--7-----------------|
G|--0--7--6-----6--7--9--|--0--7--6-----6--7--6--|
D|-----------7-----0--11-|-----------7-----7--7--|
A|--7--5-----------------|--7--5-----------------|
E|--------5--------7--9--|--------5--------5--5--|

With love,
Jessica
=====================================================================
Comments