Dave Matthews Band - Last Stop Chords & Tabs

 

Last Stop Chords & Tabs

Dave Matthews Band Chords & Tabs

Version: 2 Type: Tab 0 ratings
1 star 2 stars 3 stars 4 stars 5 stars
comments

Last Stop Tab

Intro/Verse

--------------------------------------------------------|
--------------------------------------------------------|
---3-4/7-4-3---3-4/7-8-7-4-3-4/7-4-3--------------------|
---4-5/8-5-4---4-5/8-9-8-5-4-5/8-5-4--------------------|
---x-x-x-x-x---x-x-x-x-x-x-x-x-x-x-x--------------------|
---2-3/6-3-2---2-3/6-7-6-3-2-3/6-3-2--------------------|

you can hear the changes made throughout the verse in the music
very easily, otherwise, just keep hitting that base note.

"This is the last stop"

--------------------------------------------------------|
--------------------------------------------------------|
--11-10-8-7---------------------------------------------|
--12-11-9-8---------------------------------------------|
--xx-xx-x-x---------------------------------------------|
--10--9-7-6---------------------------------------------|

"Youre righteous, so righteous"

--------------------------------------------------------|
--------------------------------------------------------|
--------------------------------------------------------|
---2----------------------------------------------------|
---2----------------------------------------------------|
---0----------------------------------------------------|
[ Tab from: http://www.guitartabs.cc/tabs/d/dave_matthews_band/last_stop_tab_ver_2.html ]
"Go ahead believe that you are the chosen one"

--------------------------------------------------------|
--------------------------------------------------------|
--3-4-7-8-7-8-10-11-10-8-7-4-3--------------------------|
--4-5-8-9-8-9-11-12-11-9-8-5-4--------------------------|
--x-x-x-x-x-x-xx-xx-xx-x-x-x-x--------------------------|
--2-3-6-7-6-7--9-10--9-7-6-3-2--------------------------|

"Here...its always blowing up"

---------------------------------------------------------|
---------------------------------------------------------|
-11--6--4------------------------------------------------|
-xx--x--x------------------------------------------------|
--9--4--2------------------------------------------------|
-10--5--4------------------------------------------------|

Outro

--------------------------------------------------------|
--------------------------------------------------------|
---3--3--3--3-------------------------------------------|
---4--4--4--4-------------------------------------------|
---2--1--x--x-------------------------------------------|
---x--x--1--2-------------------------------------------|

thats basically it, play it strong, and have fun with changing up
rhythms during the verse. any questions, email me at
evilactordan@yahoo.com

peace and love,
dan
Comments