Dave Matthews Band - Jimi Thing Chords & Tabs

 

Jimi Thing Chords & Tabs

Dave Matthews Band Chords & Tabs

Version: 5 Type: Tab 0 ratings
1 star 2 stars 3 stars 4 stars 5 stars
comments

Jimi Thing Tab

DAVE MATTHEWS BAND
Jimi Thing (solo)

	This is not on the album, but dave usually plays it live. It is rare that
dave plays a solo so when he does its gooood shit. I just can't believe i'm the first
person to tab it because its awsome.  This is taken from listener supported.  He plays
it pretty close to this every time whith some improv and variation.  Play it very
sharply with some palm muting.

---any questions or comments---Jec147@yahoo.com

--------------------------------------12/0--------------------------------------|
--------------------------------------12/0--------------------------------------|
--------------------------------------------------------------------------------|
-------------------------10--11--12---------------------------------------------|
-------------10--11--12---------------------------------------------------------|
-10--11--12---------------------------------------------------------------------|

[ Tab from: http://www.guitartabs.cc/tabs/d/dave_matthews_band/jimi_thing_tab_ver_5.html ]
--------------------------------------------------------------------------------|
--------------------------------------------------------------------------------|
--------------------------------------------------------------------------------|
--------------------------------------------------------------------------------|
--------------------------------------------------------------------------------|
-------------10--11--12--12--13--14--12--13--14---------------------------------|
-10--11--12--------------10--11--12--10--11--12---3---0-------------------------|


----------------------------10-10-------------------------------------------12--|
----------------------------10-10-------------12-12----------------12-12----12--|
----------------------------------------------12-12----------------12-12--------|
--------------------------------------------------------------------------------|
-------------10--11--12---------------------------------------------------------|
-10--11--12-------------------------10/3--10--------10--3/10--10----------------|
Comments