Dave Matthews Band - Jimi Thing Chords & Tabs

 

Jimi Thing Chords & Tabs

Dave Matthews Band Chords & Tabs

Version: 4 Type: Tab 0 ratings
1 star 2 stars 3 stars 4 stars 5 stars
comments

Jimi Thing Tab

"Lately I've been..."
E------------------------------------------------------- 
B-------------------------9-----9--9--9------2-x-x------
G-------------------------9-----9--9--9------2-x-x--6h7-
D------------9-----9--9---9h11-11-11-11------2-x-x--7---
A------7-----9h11-11-11---0-----x--x--x------0-x-x--x---
E--7h9----9--0-----x--x------------------12/--------5---


"If you could keep me floating..." (strum)
E--2--1--2------------2--1--2------------------
B--3--1--3--5h6-6-5---3--1--3----------7-------
G--2--2--2--5---5-5---2--2--2-----9----7----4--
D--0--3--0--x-----x---0--3--0----10----x----5--
A-----3-----3-----3------3--------x----x----x--
E-----1------------------1-----8-----7----3----


"Sometimes a jimi thing..."
E------------------------------------ 
B------------------------------------
G------------------------------------
D--7--5--4--2------7--5--4--2--------
A--7--5--4--2------7--5--4--2--------
E--5--3--2--0--3/5-5--3--2--0--------


"...swingin'  I'd like to show you..."  (strum)
E---------------
B--x----x----x--
G--4----4----6--
D--2----2----7--  etc...
A--2----2----7--
E--0----4----5--



Dave's part during the jam:
E---------------------------------
B---------------------------------
G--4-x-4-4-------6-x-6h7-6--6----- repeat
D--2-x-2-2-------7-x-7---7--7-----
A--2-x-2-2-------x-x-x---x--x-----
E--0-x-0-0---3---5-x-5---5--5--3--



Sometimes:
E---------------------------------------
B---------------------------------------
G--------------------------------------- repeat
D------9-7-9----------------------------
A--2/--7-5-7\----7-7--5-5--4-4--3-3-----
E--0-----------3/5-5--3-3--2-2--1-1-----



Tim's part during intro:
E----------------------------------- 
B---------12--13/14-----------------
G--11h13----------------------------
D-----------------------------------
A--------------------------2-4------
E----------------------2h4----------


solo
E---15-15-15-15-15-15-15-15--------15-15-15-15-15-15-15-15-----
B-12-12-12-12-12-12-12-12--12-13-14-14-14-14-14-14-14-14-------
G-12-12-12-12-12-12-12-12--------12----------------------------
D--------------------------------------------------------------
A--------------------------------------------------------------
E--------------------------------------------------------------

E---15-15-15-15-15-15-15-15---------15----------15----------15-
B-12-12-12-12-12-12-12-12--12-13-14----12-13-14----12-13-14----
G-12-12-12-12-12-12-12-12--------------------------------------
D--------------------------------------------------------------
A--------------------------------------------------------------
E--------------------------------------------------------------

E----------15-------x-15-15-15-15-15-15-15-15-15-15-15-15-(etc)
B-12-13-14----12-14--------------------------------------------
G--------------------------------------------------------------
D--------------------------------------------------------------
A--------------------------------------------------------------
E--------------------------------------------------------------

E-14h15-14-12----10h12-12-12---15-15-15-15-15-15-15-x-15-15-15-
B-------------14-----------------------------------------------
G--------------------------------------------------------------
D--------------------------------------------------------------
A--------------------------------------------------------------
E--------------------------------------------------------------

E-15-15-15-x---15-14-12----15-14-12-------------------15-14-12-
B-----------------------15----------15-14-12-------------------
G--------------------------------------------14-12-------------
D--------------------------------------------------14----------
A--------------------------------------------------------------
E--------------------------------------------------------------


E--------------------------------------------------------------
B-15-14-12-----------15-15-15-14-12------15-15-15-14-12--------
G----------14-12--------------------14------------------14-----
D----------------14--------------------------------------------
A--------------------------------------------------------------
E--------------------------------------------------------------
[ Tab from: http://www.guitartabs.cc/tabs/d/dave_matthews_band/jimi_thing_tab_ver_4.html ]
E--------------------------------------------------------------
B-12-14-15-12-12----12-12--------------------------------------
G----------12-12----12-12-14-12-------9-10-11------------------
D----------------14-------------14-12---------7-11-10-9-(etc)--
A--------------------------------------------------------------
E--------------------------------------------------------------




Listener Supported Dave Jam (9:58):
E------------------ --------------------------------------------
B--15-15-15-15-15-- --------------------------------------------
G--14-14-14-14-14-- --------------------------------------------
D------------------ -12-13-14----12-13-14--12-13-14-------------
A------------------ --------------------------------------------
E------------------ ---------------------------------12/5\12----


E-----------------------------------------------
B-12-12-12--12-12-12---------------------------- repeat this line
G-12-12-12--12-12-12---------------------------- 3 times
D-----------------------------------------------
A-----------------------------------------------
E----------------------10-11-12--10-11-12-------


E---------------------12\-------------------------------------
B-12-12-12--12-12-12--12\-------------------------------------
G-12-12-12--12-12-12--12\----x--------------------------------
D----------------------------x--------------------------------
A----------------------------x-----------9/10-11-12--12-13-14-
E------------------------3/5-x--10-11-12----------------------


E------------------------------------------------------12\----
B------------------------------------------------------12\----
G------------------------------------------------------12\----
D-12-13-14-----------------------------------12-13-14---------
A----------------------------------10-11-12-------------------
E-----------10-11-12--12-10-11-12-----------------------------

E-------------------------------------------------------
B-------------------------------------------------------
G------------------------------------------x------------ 
D---------------------12-13-14--12-13-14---x------------
A-----------10-11-12--12-13-14--12-13-14---x------------
E--10-11-12-----------10-11-12--10-11-12---x---3--0-----


E-------------------------------------------10----------7-7--
B--------------------------------------------8----------8-8--
G---------------------12-13-14------------7--7----------7-7--
D-12-13-14--12-13-14---x--x--x--14\-------5--------3/5-------
A--x--x--x---x--x--x--10-11-12---x------5--------------------
E-10-11-12--10-11-12------------12\------------10\-----------


E-------------------x--12------------------------------------
B------------12-12--x--12------------------------------------
G------------12-12--x--12------------------------------------
D------------12-12--x-----------------------12-13-x-14\------
A-5/7---------------x---------3/5--12-13-14-10-11-x-12\------
E-----12\10---------x-----10\------10-11-12------------------


E-------------------------------------------------------------
B-------------------------------------------------------------
G-------------------------------------------------------------
D------------------------9/10--9-----------11/12\11-11/12\11--
A--------------12-13-14--7/-8--7--12/13-14--9/10\-9--9/10\-9--
E--3--0---3/---10-11-12-----------10/11-12--------------------


E-------------------------12-12-x----------------------------10-
B-------------------------12-12-x-12\--------------------12--12-
G-------------------------12-12-x-12\--------------------12-----
D--12-11--9---------------------x-12\--------------------12-----
A--10--9--7-------------------------------------12-13-14--------
E-------------3--0---3/10--------------3-0-3/10-10-11-12--------


then he jams a bit on the same riff, then:


                            plays with harmonics a bit too
E--------- --------------- ---------------(12)------------
B--------- --------------- -----------(12)----------------
G--------- --------12----- -------(12)--------------------
D--------- --12h14----14-- ---(12)------------------------
A--12/14-- --------------- -------------------------------
E--10/12-- --------------- -------------------------------


E------------------------------------- --------------------------
B------------------------------------- --------------------------
G-------12-------12-------14-12------- --------12---14--12-------
D-12h14-12-12h12-12-12h14-14-12-12-14- ---14---------------12-14-
A-12h14----12h14----12h14-------12-14- -12---12---12--12---------
E------------------------------------- --------------------------
Comments