Dave Matthews Band - Jimi Thing Chords & Tabs

 

Jimi Thing Chords & Tabs

Dave Matthews Band Chords & Tabs

Version: 2 Type: Tab 0 ratings
1 star 2 stars 3 stars 4 stars 5 stars
comments

Jimi Thing Tab

   
#----------------------------------PLEASE NOTE---------------------------------#
#This file is the author's own work and represents their interpretation of the #
#song. You may only use this file for private study, scholarship, or research. #
#------------------------------------------------------------------------------##

Dave Matthews Band
Jimi Thing
Under the Table and Dreaming
Tabbed by Adam

There are a few tabs of this song out there, none of which are quite right, 
so given that I have the U-T-T-A-D song book, I thought I’d give a more depthy  
tab. If you have any questions or comments you can reach me at  musicalsyndrome1@AOL.com 
If this tab really helps you out, please, by all means E-mail me and let me know, 
I love validation.      

   D           F           C           Csus4    C5add6      G          E5          A5        E/G#
x5777x   133211  x3201x    x3301x  xx5585  320033  022xxx  x022xx    422x00


(gtr.1)
e---------------------------------------------------------------------------------
B--------------------------------------------------------------------------------
G--------------------------------------------------------------2-----x---6h7---
D---------------------------9--x---9h11--x---9--------0----2----x----7-----
A---------7---------9h11-----x---0--0-----------11/0------0-----------------
E---7h9-----9------0--0--------------------------------------------------------

[ Tab from: http://www.guitartabs.cc/tabs/d/dave_matthews_band/jimi_thing_tab_ver_2.html ]
(gtr.2)
e---------------------------------------------------------------------------------
B---------------------------------9----------9---9-----9--------2---2---6h7--
G--------------------------9-----9----------9---9------9-------2---2----7----   play with slight variation when
D--------------------------9-----9h11-----11--9------9-------2---2----------  repeated or recalled; be creative.
A-------------------9h11--------0------------------------------0---0----------
E--------------------0-----------------------------------------------------------

(gtr.3, fill 1)
e-------------------------------------------------------------------
B---------------------------------12---12h14--------------------
G-------------------------------------------------------------------
D-------------------------------------------------------------------
A-------------------------------------------------------------------
E-------------------------------------------------------------------

Riff one goes throughout the whole verse but when you get to the lyric “not got” you hit A once with each word.

Pre-chorus
Riff to chorus:
C5add6
e----5----------------------------------
B---8----------------------------------
G---5----------------------------------
D---5----------------------------------
A---x-----------------------------------
E---x---------8---7/3--3---------------

(gtr.2)
----0-----1-----0--------3-------------
----------------------3----------------0
---------------------------------------0
----------------------------------------
----------------------------------------
------------------------------3---3----




Chorus riff:

  A5                                  E5
---------------------------------------
----------------------------------------
----2----x-------x-------------------------
----2----x-------x-----4-----2-------------
----0----x-------x------------2-------------
----0-------3-------2---------0------------


During violin jam:

E5    G   A5   G  E5


During sax jam:

   Em   Am  Em  Am

There it is, if someone E-mails me and requests it, I’ll tab out the violin solo too   
Comments