Dave Matthews Band - I Did It Chords & Tabs

 

I Did It Chords & Tabs

Dave Matthews Band Chords & Tabs

Version: 1 Type: Tab 0 ratings
1 star 2 stars 3 stars 4 stars 5 stars
comments

I Did It Tab

Author/Artist: Dave matthews band  
Title: I did it  
Album: Everyday  
Transcribed by: Billy  
Email: Trojanman2552543@aol.com  
 
-------8----------------------------------------------------------------------  
-------7----------------------------------------------------------------------  
---------x-x-5--x-x-7-x-x-9---------------------------------------------------  
---------x-x-x--x-x-x-x-x-x---------------------------------------------------  
--55-----x-x-3--x-x-3-x-x-7---------------------------------------------------  
------------------------------------------------------------------------------  
             Intro                                                              
 
------------------------------------------------------------------------------  
------------------------------------------------------------------------------  
---11--11--11--11--11--11-----------------------------------------------------  
---11--11--11--11--11--11-----------------------------------------------------  
----9--9----9--9---9---9------------------------------------------------------  
------------------------------------------------------------------------------  
              Chorus, play this until " i didn't know it felt so right          
 
------------------------------------------------------------------------------  
------------------------------------------------------------------------------  
-----8--8-8-8-----------------------------------------------------------------  
-----8--8-8-8-----------------------------------------------------------------  
-----6--8-6-6-----------------------------------------------------------------  
------------------------------------------------------------------------------  
      I didn't know it felt so right                                            
 
------------------------------------------------------------------------------  
------------------------------------------------------------------------------  
---6--6-6---------------------------------------------------------------------  
---6--6-6---------------------------------------------------------------------  
---4--4-4---------------------------------------------------------------------  
------------------------------------------------------------------------------  
  i opened up the curtains i heard sirens there there the                       
 
------------------------------------------------------------------------------  
------------------------------------------------------------------------------  
----4--4-4-4------------------------------------------------------------------  
----4--4-4-4------------------------------------------------------------------  
----2--2-2-2------------------------------------------------------------------  
------------------------------------------------------------------------------  
            But i did it justice                                                
 
---------7--------------------------------------------------------------------  
-----7-----10-----8-7-----7-8-7-8---------------------------------------------  
-------9------7-------6-7-----------------4-----------------------------------  
---9------------7-----------------7---4-----7-----5-4-----4-5-4-5-------------  
----------------------------------------7-----5-------4-5---------------------  
------------------------------------7-----------5-----------------5-----------  
 Interlude
[ Tab from: http://www.guitartabs.cc/tabs/d/dave_matthews_band/i_did_it_tab.html ]
Comments