Dave Matthews Band - Hunger For The Great Light Chords & Tabs

 

Hunger For The Great Light Chords & Tabs

Dave Matthews Band Chords & Tabs

Version: 1 Type: Tab 0 ratings
1 star 2 stars 3 stars 4 stars 5 stars
comments

Hunger For The Great Light Tab

-------------------------------------------------------------------------------
		    HUNGER FOR THE GREAT LIGHT - Dave Matthews Band
-------------------------------------------------------------------------------
Tabbed by:Mike Maglia
Email:mjk2@unh.edu

Tuning:Standard Tuning
[ Tab from: http://www.guitartabs.cc/tabs/d/dave_matthews_band/hunger_for_the_great_light_tab.html ]
Intro
e|--3------------------1-------------------------------------------------------|
B|--0-------1----1-----1-----2-------------------------------------------------|   
G|--0-------0----0-----2-----2---------x4--------------------------------------|
D|--0-------2----x-----3-----2-------------------------------------------------|
A|--2-------3----2-----3-----0-------------------------------------------------|
E|--3------------------1-------------------------------------------------------|


Main Riff Throughout Song
e|-1--1--------------------1--1------------------------------------------------|
B|-1--1--------2--2--------1--1--------2--2------------------------------------|
G|-2--2--------2--2--------2--2--------2--2------------------------------------|
D|-3--3--2--2--2--2--------3--3--2--2--2--2------------------------------------|
A|-3--3--2--2--0--0--------3--3--2--2--0--0------------------------------------|
E|-1--1--0--0--------3--2--1--1--0--0--------3--2------------------------------|
Comments