Dave Matthews Band - Hello Again Chords & Tabs

 

Hello Again Chords & Tabs

Dave Matthews Band Chords & Tabs

Version: 2 Type: Tab 0 ratings
1 star 2 stars 3 stars 4 stars 5 stars
comments

Hello Again Tab

   
-------------------------------------------------------------------------------
			     Hello Again - Dave Matthews Band
-------------------------------------------------------------------------------
Tabbed by:Espen Rian Skog
Email:Espenskog@gmail.com

Tuning:EADGBE (Standard)



Intro/Verse:
e|---3---3----3----3------3----3----3----3----3--3-0-----3---3---3---3-------|
B|---3---1----1----3------3----1----1----1----1--1-1-----3---1---1---3-------|
G|---0---0----3----0------0----0----3----0----0--3-0-----0---0---3---0-------|
D|--(0)-(0)--(0)--(0)----(0)--(0)--(0)---x--------------(0)-(0)-(0)-(0-------|
A|---------------------------------------3--3--------------------------------|
E|-3------------------3-------------------------------3----------------------|

[ Tab from: http://www.guitartabs.cc/tabs/d/dave_matthews_band/hello_again_tab_ver_2.html ]
Chorus: "hello again"
e|---------------------------------------------------------------------------|
B|-3-3---------3-3---------1--------3----------------------------------------|
G|-3-3---------3-3---------0--------3----------------------------------------|
D|-0-0---------0-0---------2--------0-------3-5------------------------------|
A|-x-x---------x-x---------3--------x-------3-5------------------------------|
E|-3-3--1--3---3-3--1--3------1-3---3-------1-3------------------------------|


"All these thoughts"
e|---------------------------------------------------------------------------|
B|------------------------6--7-----------------------------------------------|
G|-----8---8-----8--8--7--7--7-----------------------------------------------|
D|-3---x---7--3--x--7--8--7--7-----------------------------------------------|
A|-3---6---6--3--6--6--8--5--5-----------------------------------------------|
E|-1-------8--1-----8--6-----------------------------------------------------|


For the jam Dave plays the verse riff. Good luck!
Corrections and feedback always appreaciated. 



| /  slide up
| \  slide down
| h  hammer-on
| p  pull-off
| ~  vibrato
| +  harmonic
| x  Mute note
|( ) Ghost note
===============================================================================
Comments