Dave Matthews Band - Hello Again Chords & Tabs

 

Hello Again Chords & Tabs

Dave Matthews Band Chords & Tabs

Version: 1 Type: Tab 0 ratings
1 star 2 stars 3 stars 4 stars 5 stars
comments

Hello Again Tab

Hello Again
    This is one of Dave Matthews Bands songs from there 2004 Summer Tour.
    I got it from the show I went to in Camden, NJ on July 20, 2004
    It will appear in there new live cd at San Fran.....
[ Tab from: http://www.guitartabs.cc/tabs/d/dave_matthews_band/hello_again_tab.html ]
     INTRO: Strum all of the notes
   e---3--3--3--3------3--3--3--3------3----3---3--3--3--3------------------|
   B---3--3--1--3------3--3--1--3------1----1---3--3--1--3------------------|
   G-0-0--0--0--0----0-0--0--0--0------0--3-0---0--0--0--0------------------|
   D------------------------------------------------------------------------|
   A---------------------------------3--------------------------------------|
   E------------------------------------------------------------------------|

     "Hello Again....."
   e------------------------------------------------------------------------|
   B---------------------------1--1-----------------------------------------|
   G-3--3--------3--3----------0--0----------3--3---------------------------|
   D-x--x--------x--x----------2--2----------x--x---------------------------|
   A-1--1--------1--1----------3--3----------1--1---------------------------|
   E-3--3--1--3--3--3--1--3----3--3--1--3----3--3--1--3--3------------------|


       This is a great song..........Dave Matthews For President :)
Comments