Dave Matthews Band - Gravedigger Chords & Tabs

 

Gravedigger Chords & Tabs

Dave Matthews Band Chords & Tabs

Version: 3 Type: Tab 0 ratings
1 star 2 stars 3 stars 4 stars 5 stars
comments

Gravedigger Tab

   
-------------------------------------------------------------------------------
			   GRAVEDIGGER - Dave Matthews Band
-------------------------------------------------------------------------------
Tabbed by:Drew
Email: drewserbonner@hotmail.com


        
intro                         stum E                 repeat once
e|-----------------------------0--0-----0---3--0--|------------------|
B|-------0h1-1-0h1-1---3-3-----0--0-----1---3--3--|-----0h1-1-0h1----|
G|---------------------0-0-----1--1-----2---0--2--|------------------|
D|-----------------------------2--2-----2---0--0--|------------------|
A|-----0-----------------------2--2---0-----2--0--|-0-0--------------|
E|-------------------3-----0---0--0--------3--2---|------------------|
[ Tab from: http://www.guitartabs.cc/tabs/d/dave_matthews_band/gravedigger_tab_ver_3.html ]
verse-stum chords   Am    G    F
e|-------------------0----3----1-------------------------------------|
B|-------------------1----3----1-------------------------------------|
G|-------------------2----0----2-------------------------------------|
D|-------------------2----0----3-------------------------------------|
A|-------------------0----2----3-------------------------------------|
E|-------------------0----3----1-------------------------------------|

chourus is the same as the intro

bridge  Dm  F  C  G
e|------1---1--0--3--------------------------------------------------|
B|------3---1--1--3--------------------------------------------------|
G|------2---2--0--0--------------------------------------------------|
D|------0---3--2--0--------------------------------------------------|
A|------0---3--3--2--------------------------------------------------|
E|------1---1--0--3--------------------------------------------------|
Comments