Dave Matthews Band - Gravedigger Chords & Tabs

 

Gravedigger Chords & Tabs

Dave Matthews Band Chords & Tabs

Version: 2 Type: Tab 0 ratings
1 star 2 stars 3 stars 4 stars 5 stars
comments

Gravedigger Tab

Intro

Play the chorus w/ these hammer ons for Intro

Usually starts w/ the "Fill" also
E:---------------0----0--0------0-----------
B:---0h1--1------0h1--1--0------0------0h1--
G:---2----2------2----2--2------1------2----
D:---2----2------2----2--2------2------2----
A:-0-0----0------x----x--x------2----0-0----
E:-------------3-3----3--3----0-0-----------

Fill
E:----------------
B:---0h1--1----0--
G:---2----2----2--
D:---2----2----2--
A:-0-0----0----0--
E:----------------

Verse
E:--------0------1---------
B:-1------0------1------1--
G:-2------2------2------2--
D:-2------2------3------2--
A:-0------x------3----0-0--
E:------3-3----1-1---------
[ Tab from: http://www.guitartabs.cc/tabs/d/dave_matthews_band/gravedigger_tab_ver_2.html ]
Chorus
E:--------0------0------------0---------
B:-1------0------0------1-----0------3--
G:-2------2------1------2-----2------2--
D:-2------2------2------2-----2------x--
A:-0------x------2----0-0-----x------x--
E:------3-3----0-0----------3-3----2-2--

"Ring Around the Rosie..."
When leading back into verse, don't play last chord
E:-1----1---------3--1--
B:-3----1----1----0--3--
G:-2----2----0----0--3--
D:------3----2----0--3--
A:------3----3----2--1--
E:------1---------3-----

Ending
Play last E-Chord with same finger of the Barred F
To end song, Don't play the last chord
E:--------0------1------0--
B:-1------0------1------0--
G:-2------2------2------1--
D:-2------2------3------2--
A:-0------x------3------2--
E:------3-3----1-1----0-0--
Comments