Dave Matthews Band - Granny Chords & Tabs

 

Granny Chords & Tabs

Dave Matthews Band Chords & Tabs

Version: 3 Type: Tab 0 ratings
1 star 2 stars 3 stars 4 stars 5 stars
comments

Granny Tab

   
Tabbed by: Scott Staley
Email: strumntheguitar@yahoo.com

Tuning: Standard (EADGBA)

| /  slide up
| \  slide down
| h  hammer-on
| p  pull-off

Intro/Verse

Sometimes he throws random palm mutes inbetween the notes here, and the rhythm is
sometimes different too, just depending on what performance you are listening too...
This is from Listener Supported.
[ Tab from: http://www.guitartabs.cc/tabs/d/dave_matthews_band/granny_tab_ver_3.html ]
E:--------------------------------------|
B:-5h7--7----5--3/5--5---3--------------|
G:-7----7----7--2/4--4---2--------------|
D:--------------------------------------|
A:--------------------------------------|
E:--------------------------3-3-2-2--x--| These are quickly picked notes... usually
two or three times each works well for me.


Starts at "Love..." and also at "Baby..."
E:-2-----------|
B:-3-----------|
G:-2---5----2--|
D:-0---x----x--|
A:-----8----5--|
E:-----6----3--|


"Stop...Only, old and wise..."
E:-3----------------------|
B:-3----------------------|
G:-0--5/7--5---7---2---6--|
A:-0--x----x---x---x---x--|
D:-2--x----x---x---x---x--|
E:-3--5/7--5---7---2---5--|

E:-----------------------|
B:-----------------------|
G:-7---2---6----2----9---|
A:-x---x---x----3----x---|
D:-x---x---x----3----x---|
E:-7---2---5----1----8---|
Comments