Dave Matthews Band - Granny Chords & Tabs

 

Granny Chords & Tabs

Dave Matthews Band Chords & Tabs

Version: 2 Type: Tab 0 ratings
1 star 2 stars 3 stars 4 stars 5 stars
comments

Granny Tab

   
Artist: Dave Matthews Band
Song:   Granny
Album:  Listener Supported

Transcribed by: Eric Beckman
                skalpadda@lycos.com

Intro:

   |   .   |   .   |   .   |   .     |   .   |   .   |   .   |   .   
E||-0h2---2---2-0-------------------|-------------------------X-------|
B||-3-----3---3-3---0------/5-----5-|\\\\3-----------------------X-------|
G||*2-----2---2-2---2------/4-----4-|\\\\2-------------------X---X-------|
D||*------------------------0-------|---------0-0-0-0-0-0-X---X-------|
A||---------------------------------|---------------------X-----------|
E||---------------------------------|---------3-3-3-2-2-2-0-----------|

   |   .   |   .   |   .   |   .     |   .   |   .   |   .   |   .   
E|-0h2---2---2-0-------------------|---0-0-------------------X-------||
B|-3-----3---3-3---0--/5------\\\\3---|-3-3-3-3-----------------X-------||
G|-2-----2---2-2---2--/4------\\\\2---|-2-2-2-2-------------X---X------*||
D|-0-----0---0-0---0---0-------0---|-0-0-0-0-0-0-0-0-0-0-X---X------*||
A|---------------------------------|---------------------X-----------||
E|---------------------------------|---------3-3-3-2-2-2-0-----------||



Verse:

   |   .   |   .   |   .   |   .     |   .   |   .   |   .   |   .   
E|-0h2---2---2-0---0---------------|-------------------------X-------|
B|-3-----3---3-3---3---0--/5-------|\\\\3-----------------------X-------|
G|-2-----2---2-2---2---2--/4-------|\\\\2-------------------X---X-------|
D|-0-----0---0-0---0---0---0-------|-0-------------------X---X-------|
A|---------------------------------|---------------------X-----------|
E|---------------------------------|---------3-3-3-2-2-2-0-----------|
                                                             ********
* = The last beat is 
    not played in the 
    last measure before
    the chorus.


Chorus:

strum chords
    D             Bbadd9            Gadd9
    |   .   |   .   |   .   |   .     |   .   |   .   |   .   |   .   
E||-2---------------1---------------|-X-------------------------------|
B||-3---------------1---------------|-3-------------------------------|
G||*2---------------3---------------|-2-------------------------------|
D||*0---------------3---------------|-0-------------------------------|
A||-----------------1---------------|-2-------------------------------|
E||---------------------------------|-3-------------------------------|
[ Tab from: http://www.guitartabs.cc/tabs/d/dave_matthews_band/granny_tab_ver_2.html ]
 Dsus  D         Bbadd9            Gadd9
   |   .   |   .   |   .   |   .     |   .   |   .   |   .   |   .   
E|-3---2-----------1---------------|-X-------------------------------||
B|-3---3-----------1---------------|-3-------------------------------||
G|-2---2-----------3---------------|-2------------------------------*||
D|-0---0-----------3---------------|-0------------------------------*||
A|-----------------1---------------|-2-------------------------------||
E|---------------------------------|-3-------------------------------||



Bridge(?):

    |   .   |   .   |   .   |   .     |   .   |   .   |   .   |   .   
E||-3-------------------------------|---------------------------------||
B||-3-------------------------------|---------------------------------||
G||-0-----------7-\\\\5----------------|-7----\\\\2----/6-----------6-------||
D||-0-----------X--X----------------|-X-----X-----X-----------X-------||
A||-2-----------X--X----------------|-X-----X-----X-----------X-------||
E||-3-----------6-\\\\5----------------|-7----\\\\2----/5-----------5-------||


    |   .   |   .   |   .   |   .     |   .   |   .   |   .   |   .   
E||---------------------------------|---------------------------------||
B||---------------------------------|---------------------------------||
G||-7----\\\\2----/6-----------6-------|---------------------------------||
D||-X-----X-----X-----------X-------|-3-------3//////1010101010\\\\------||
A||-X-----X-----X-----------X-------|-3-------3//////1010101010\\\\------||
E||-7----\\\\2----/5-----------5-------|-1-------1///////8-8-8-8-8\\\\------||


    |   .   |   .   |   .   |   .     |   .   |   .   |   .   |   .   
E||---------------------------------|---------------------------------||
B||---------------------------------|---------------------------------||
G||---------7------\\\\5-------X-------|-7----\\\\2----/6-----------6-------||
D||---------X-------X-------X-------|-X-----X-----X-----------X-------||
A||---------X-------X-------X-------|-X-----X-----X-----------X-------||
E||---------6------\\\\5-------X-------|-7----\\\\2----/5-----------5-------||
 
                                     Timing:5/4
    |   .   |   .   |   .   |   .    |   .   |   .   |   .   |  .  |  . 
E||---------------------------------|------------------------------------||
B||---------------------------------|------------------------------------||
G||-7----\\\\2----/6-----------6-------|------------------------------------||
D||-X-----X-----X-----------X-------|3-------3//////1010101010\\\\----------||
A||-X-----X-----X-----------X-------|3-------3//////1010101010\\\\----------||
E||-7----\\\\2----/5-----------5-------|1-------1///////8-8-8-8-8\\\\----------||

I\\\'m sure you can puzzle it 
together from here.
Comments