Dave Matthews Band - Grace Is Gone Chords & Tabs

 

Grace Is Gone Chords & Tabs

Dave Matthews Band Chords & Tabs

Version: 3 Type: Tab 0 ratings
1 star 2 stars 3 stars 4 stars 5 stars
comments

Grace Is Gone Tab

   
-----------------------------------------------------------------------
			     Grace is Gone- Dave Mathews Band
-----------------------------------------------------------------------
Tabbed by: allen T
Email: rvhdexpres@aol.com

The picking is speradic, he usually hits more then one sting where i have
indicated u to only play one but you can follow this exactly and it will
sound good.

Tuning: Standard
[ Tab from: http://www.guitartabs.cc/tabs/d/dave_matthews_band/grace_is_gone_tab_ver_3.html ]
             A                    B               C	  D                            
e|-----------------------|------------------|------------|------------|
B|--------3----3---------|----2------3-3----|-----3------|--------3---|
G|--0h2--------2h4-4p2---|--3---3-----2-----|-----0------|----2---2-x4|
D|--0---0---0----------0-|4-----4p2------0--|--2---------|--0---0-----|
A|--0--------------------|------------------|--3----3----|------------|
E|-----------------------|------------------|------------|------------|

       Chorus
e|---3---2--2---5---|
B|---3---3--3---5---|
G|---0---2--4---6---|
D|---0---0--4---7---|
A|---2------2---7---|
E|---3----------5---|


Order:
A-B-A-C-D

Chorus


| /  slide up
| \  slide down
| h  hammer-on
| p  pull-off
| ~  vibrato
| +  harmonic
| x  Mute note
===================================================================
Comments