Dave Matthews Band - Everyday Chords & Tabs


Everyday Chords & Tabs

Dave Matthews Band Chords & Tabs

Version: 2 Type: Tab 0 ratings
1 star 2 stars 3 stars 4 stars 5 stars

Everyday Tab

Artist: Dave Matthews Band
Song: Everyday
Album: Everyday

Tabbed from several live performances and listening to the album.

NOTE: There is a fair amount of variation, so be creative.
He tends to be relatively creative with the bridge, not as much
with the verse or chorus. By no means is this considered 100%
accurate, this is just the way I like to play it.

[ Tab from: http://www.guitartabs.cc/tabs/d/dave_matthews_band/everyday_tab_ver_2.html ]
      Play 3x            Then this
E ---------------------|-----------------------------------------------
B ---------------------|-----------------------------------------------
G ----9---9-------9----|-------------------9---------------------------
D ----10--10------10---|------10-----------10--------------------------
A --8------------------|----8----8-------------------------------------
E ------------8-8------|--6--------6--8-8------------------------------
  Pick me up...           Everyday


E ----------------1--1-------|--3--3--3--3-----------------------------
B --0h1-1--1--1---1--1-------|--0--0--0--0-----------------------------
G --2---2--2--2---2--2-------|--0--0--0--0-----------------------------
D --2---2--2--2---2--2-------|--0--0--0--0-----------------------------
A ----------------3--3-------|--2--2--2--2-----------------------------
E ----------------1--1--*3-3-|--3--3--3--3-----------------------------
  All you need is...          Love...

* = Sometimes he's playing the full chord (F/G), other times he sticks
with the regular F