Dave Matthews Band - Everybody Wake Up Chords & Tabs

 

Everybody Wake Up Chords & Tabs

Dave Matthews Band Chords & Tabs

Version: 2 Type: Tab

Everybody Wake Up Tab

Everybody Wake Up
Dave Matthews Band
Stand Up

Tabbed by Kevin Hunsicker

This was tabbed mostly from live sources...namely, the 12-15-2005 show.  Enjoy!

Intro

e|-----|-------------------------|\
B|-----|--(3)-(3)-(3)-(3)--------| \ 
G|---2-|---0---0---0---0---2---2-|  \  Continue until chorus
D|-0---|-0---0---0---0---0---0---|  /
A|-----|-------------------------| /
E|-----|-------------------------|/

You can also ad lib during the verses with G and D thrown in on occasion...

e|-3----|
B|-3--3-|
G|-0--2-|
D|-0--0-|
A|-x----|
E|-3----|
[ Tab from: http://www.guitartabs.cc/tabs/d/dave_matthews_band/everybody_wake_up_tab_ver_2.html ]
Chorus
             "...and our finest hour arrives..."
                          x 4 then-->   (back to intro/verse part)
e|-----------|----------------------|-----|--------------|
B|-----------|----------------------|-----|--(3)---------|
G|-----0---2-|----------------------|---2-|---0----------|
D|---0---0---|-3-2-0--------------2-|-0---|-0---0.......-|
A|...--------|-------3------2-3-5---|-----|--------------|
E|-----------|----------3-5---------|-----|--------------|


Outro

e|-------|---------------|
B|-8--10-|-13--12--8--10-|
G|-7--7--|-12--12--7--7--|
D|-5--7--|-10--9---5--7--|
A|-------|---------------|
E|-------|---------------|