Dave Matthews Band - Drive In Drive Out Chords & Tabs

 

Drive In Drive Out Chords & Tabs

Dave Matthews Band Chords & Tabs

Version: 1 Type: Bass Tab 0 ratings
1 star 2 stars 3 stars 4 stars 5 stars
comments

Drive In Drive Out Bass Tab

Dave Matthews Band
Drive In, Drive Out
Mark Cooper
CoopS4172@aol.com

The bass enters at the end of each guitar lick in the intro.

G|------------------|
D|------------------|
A|------------------|
E|----3-3-5---------|

G|------------------|       
D|--5-4-------------|       
A|------5-44-5-4-0--| x3    
E|------------------|       

G|------------------|
D|--5-4-------------|
A|------5-----------|
E|---------3-3-5----|
[ Tab from: http://www.guitartabs.cc/tabs/d/dave_matthews_band/drive_in_drive_out_btab.html ]
It's a simple G-D-A pattern, so jazz it up a bit.

G|-------------------------------------------|
D|---------------------------(7-7)-----(7-7)-|
A|---------7--5-5-------------7-7-------7-7--|
E|--5--------------3-3---5-5-------5-5-------|

G|-------------------------------------------------------|
D|--------7--5--4-------------------------------------7--| 
A|-----7-------------7--5-------------5------5------7----|
E|--5-----------------------8--7---3------3------5-------|
====
Comments