Dave Matthews Band - Dream I Killed God Chords & Tabs

 

Dream I Killed God Chords & Tabs

Dave Matthews Band Chords & Tabs

Version: 1 Type: Tab 0 ratings
1 star 2 stars 3 stars 4 stars 5 stars
comments

Dream I Killed God Tab

Tabbed by Morrissey

Short jam played live by Dave and the band, usually after Minarets.
Kind of a dark song, but it's all good.

Transition from Minarets (strumming):
E----- ------------------ --------|
B----- ------------------ --------|
G--9-- -------9-9--9--9-- --9--9--|
D--9-- -------9-9--9--9-- --7--9--|
A--7-- ---5/7-7-7--7--7-- --8--7--|
E--0-- -------0-0--8--7-- -----0--|
[ Tab from: http://www.guitartabs.cc/tabs/d/dave_matthews_band/dream_i_killed_god_tab.html ]
I Dreamed I killed God:
E------------------------------------------|
B------------------------------------------|
G--------x--x--x--x--------x--x--x--x------|
D-----x--0--2--2--0-----x--0--2--2--0------|
A-----7--5--3--3--2-----7--5--3--3--2------|
E--0--0--x--x--x--x--0--0--x--x--x--x------|

*mute the low E with your thumb and the G with your ring finger
(you can also leave the low E open which also sounds pretty cool)
Comments