Dave Matthews Band - Dream Girl Chords & Tabs

 

Dream Girl Chords & Tabs

Dave Matthews Band Chords & Tabs

Version: 1 Type: Tab 2 ratings
1 star 2 stars 3 stars 4 stars 5 stars
comments

Dream Girl Tab

DREAM GIRL
by Dave Matthews Band 
Tab by Adam Hanley (adwolf16@aol.com) 
www.angelfire.com/music4/dmbmidis 


Intro/Post-Chorus: 

e----------------------------|----------------------| 
b----------------------------|----------------------| 
g----------------------------|----------------------| 
d---9------------------------|-----6-4-2--2---2-4---| 
a-----12-11-----11-12-11-----|---4----------4-----4-| 
E------------12----------12--|-0--------------------| 

Verse (more or less): 

e-----|-----| 
b-----|-----| 
g--1--|--2--| 
d--2--|--2--| 
a-----|--0--| 
E--0--|-----| 

Chorus: 
[ Tab from: http://www.guitartabs.cc/tabs/d/dave_matthews_band/dream_girl_tab.html ]
e---------------------------| 
b---------------------------| 
g---------------------------| 
d-9---9---9-------6h7-6---6-| 
a---7---6---6---7-------7---| 
E-9-----7-----5-------------| 

e---------------------------| 
b---------------------------| 
g---------------------------| 
d-9---9---9-------6-6h7-6---| 
a---7---6---6---7---------7-| 
E-9-----7-----5-------------| 

e---------------------------| 
b---------------------------| 
g---------------------------| 
d-9---9---9-------6-6h7-6---| 
a---7---6---6---7---------7-| 
E-9-----7-----5-------------| 


e-------------|r 
b-------------|e 
g-1---1---1---|p 
d-------------|e 
a---4---4---4-|a 
E-2-----------|t 

Break: 

e--0--|--0--|--0--|--------| 
b--0--|--0--|--0--|--5--5--| 
g--1--|--1--|--1--|--4--4--| 
d--2--|--2--|--2--|--2--2--| 
a--2--|--2--|--2--|-------| 
E--0--|--0--|--0--|--4--4--| 





Comments