Dave Matthews Band - Dancing Nancies Chords & Tabs

 

Dancing Nancies Chords & Tabs

Dave Matthews Band Chords & Tabs

Version: 2 Type: Tab 0 ratings
1 star 2 stars 3 stars 4 stars 5 stars
comments

Dancing Nancies Tab

Dancing Nancies
By:Dave Matthews Band
Tabbed by:Mike Lamb

This is tabbed off UNDER THE TABLE AND DREAMING.Alot of sites seem to have the 
live one so i decided to tab the studio version, i'm positive its right apart 
from the start of the chorus which is pretty close.

Standard tuning.

Intro:(can be played with just the top string)
E------------------------------------||
B------------------------------------||X?(Easy to work out)
G------------------------------------||
D---5-------5---4------4---5---------||
A------------------------------------||
E-3-------3---2------2---3-----------||

Verse:
E-----------------------------||
B-----------------------------||
G-4xxx4xxx4xx--3xxx3xxx3xx----||
D-5xxx5xxx5xx--4xxx4xxx4xx----||
A-5xxx5xxx5xx--4xxx4xxx4xx----||
E-3xxx3xxx3xx--2xxx2xxx2xx----||
[ Tab from: http://www.guitartabs.cc/tabs/d/dave_matthews_band/dancing_nancies_tab_ver_2.html ]
Chorus:(play around with first chord)
E-----|-----------||
B-----|-----------||Play the F#(2443)for the last part of
G-6---|-33333333--||chorus ("Almost fickle living.....").
D-7---|-44444444--||
A-5---|-44444444--||
E-5---|-22222222--||

Bridge:(Best Part)("Sing and dance......")
E-----------2xx22222---------------------------||
B-3xx33333--3xx33333---------------------------||
G-4xx44444--2xx22222---6xx66666---66666666-----||
D-4xx44444--0xx00000---7xx77777---66666666-----||
A-2xx22222-------------7xx77777---xxxxxxxx-----||
E----------------------5xx55555---44444444-----||

END PART:(Strum these chords like you strum the verse)
E-7------6----||
B-8------7----||
G-7------6----||
D-9------8----||
A-10-----9----||
E-------------||

That's the song and i'm pretty sure its right.(execpt the first part of the chorus, 
but you can work that out easy) 
Comments