Dave Matthews Band - Crash Into Me Chords & Tabs

 

Crash Into Me Chords & Tabs

Dave Matthews Band Chords & Tabs

Version: 1 Type: Tab 5 ratings
1 star 2 stars 3 stars 4 stars 5 stars
comments

Crash Into Me Tab

Intro/Verse

E:-------------------------------------------------
B:---5------5----5------5----5------5----5------5--
G:---4------4----4------4----4------4----4------4--
D:---2------2----x------x----x------2----x------x--
A:-4-4----0-0--2-2------2----2----0-0--2-2------2--
E:--------------------0-0--4-4----------------0-0--
   2           1           2           1 




"Crash, Into Me....
[ Tab from: http://www.guitartabs.cc/tabs/d/dave_matthews_band/crash_into_me_tab.html ]
E:--------------------0--------
B:---5----------------0-----3--
G:---4----------------1-----2--
D:---2----------------2-----x--
A:-4-4----------------2-----x--
E:---------4--5--7\---0---2-2--
   2       1  2 (4)       2




Bridge 
E:-------------------------
B:---5------5----5------5--
G:---4------4----4------4--
D:---2------2----x------x--
A:---x----0-0--2-2------2--
E:-4-4----------------0-0--
   3           1   




"In a Boy's Dream...

E:-----------------------------------------------------
B:---5------5------5------5------5------5----5------5--
G:---4------4------4------4------4------4----4------4--
D:---2------2------2------2------2------2----x------x--
A:-4-4----4-4----4-4----4-4----4-4----0-0--2-2------2--
E:------------------------------------------------0-0--
   2      2     2       2                  1
Comments