Dave Matthews Band - Crash Into Me Chords & Tabs

 

Crash Into Me Chords & Tabs

Dave Matthews Band Chords & Tabs

Version: 4 Type: Bass Tab 0 ratings
1 star 2 stars 3 stars 4 stars 5 stars
comments

Crash Into Me Bass Tab

 MY NAMES CHRIS EMAIL ME DUDEIPLAYAGUITAR@NETSCAPE.net < also my AIM
INTRO
G|---------------------------------------------------------------------------|
d|---------------------------------------------------------------------------|
A|----4--0--2------0--2------------------------------------------------------|
E|-------------0-4-----------------------------------------------------------|
[ Tab from: http://www.guitartabs.cc/tabs/d/dave_matthews_band/crash_into_me_btab_ver_4.html ]
^ reapeat the almost the whole song
Tuning:
chrous the only differend part
G|---------------------------------------------------------------------------|
D|---------------------------------------------------------------------------|
A|---7/---0----2-------------------------------------------------------------|
E|------4---------0-------2)-------------------------------------------------|
                          ^
                    NOT NESSASERY!!! (RIGHT WHEN HE SAYS INTO ME)


for a cooler bass line do this


it think it sounds cooler

G------------------------------------------------------------|
D----2222---222---22222---222-------2222--222-----22222- 222-|
A--4------0-----2------------------------0-----2-------------|
E------------------------0-----4-----------------------0-----|
Comments