Dave Matthews Band - Christmas Song Chords & Tabs

 

Christmas Song Chords & Tabs

Dave Matthews Band Chords & Tabs

Version: 2 Type: Tab 1 rating
1 star 2 stars 3 stars 4 stars 5 stars
comments

Christmas Song Tab

   
A Christmas Song by Dave Matthews and Tim Reynolds

INTRO:

e-----------------------------------e
B-----------------------------------B
G-----7----7------------------------G
D-----4h5--4--0--7----7-------5-----D
A----------------4h5--4--0h2--2-----A
E-----------------------------------E

CHANGE:

e--------------e
B--------------B
G-----7--------G
D-----4--5-----D
A--------3-----A
E--------------E

CHORUS I:

      G  A  Bm Bm

e-----3--0--2--2-----e
B-----0--2--3--3-----B
G-----0--2--4--4-----G
D-----0--2--4--4-----D
A-----2--0--2--2-----A
E-----3--0--X--X-----E

CHORUS II:

      A  Bm G  A

e-----0--2--3--0-----e
B-----2--3--0--2-----B
G-----2--4--0--2-----G
D-----2--4--0--2-----D
A-----0--2--2--0-----A
E-----0--X--3--0-----E

CHORUS III:

      Bm Bm G  A
[ Tab from: http://www.guitartabs.cc/tabs/d/dave_matthews_band/christmas_song_tab_ver_2.html ]
e-----2--2--3--0-----e
B-----3--3--0--2-----B
G-----4--4--0--2-----G
D-----4--4--0--2-----D
A-----2--2--2--0-----A
E-----X--X--3--0-----E

POST CHORUS:

      G  A  

e-----3--0-----e
B-----0--2-----B
G-----0--2-----G
D-----0--2-----D
A-----2--0-----A
E-----3--0-----E

ENDING:

e-----------------2h3--2-----e
B-----------------3----3-----B
G--------------2-------------G
D-----------0----------------D
A--------0-------------------A
E-----3----------------------E

INTRO x5, CHANGE, INTRO, CHANGE, INTRO x4, CHORUS I x2, POST CHORUS, 
INTRO x5, CHORUS I, POST CHORUS, INTRO, CHORUS II x4, CHORUS III x2, 
INTRO x13, CHORUS I x2, POST CHORUS, INTRO x5, CHORUS I x2, POST CHORUS, 
INTRO x2, CHORUS I x2, POST CHORUS, INTRO x2, CHORUS I x4, POST CHORUS,
ENDING

This is the entire song tabbed and put in order by Ryan Castor.  Please
let me know what you think of it:  LedHed4444@msn.com
Comments