Dave Matthews Band - Big Eyed Fish Chords & Tabs

 

Big Eyed Fish Chords & Tabs

Dave Matthews Band Chords & Tabs

Version: 5 Type: Tab 0 ratings
1 star 2 stars 3 stars 4 stars 5 stars
comments

Big Eyed Fish Tab

   this is the intro and the plucking done by the violin. i know the intro is right and 
90% sure that the solo is too.

By Al Tahan

---------------------------------------------------|  listen to the song to
---------------------------------------------------|  get the struming down
---------------------------------------------------|
---/9-9----5-5-5-5----5-5-5-5----4-4-4-4-----------|  this reapeats many
---/7-7----3-3-3-3----2-2-2-2----2-2-2-2-----------|  times
---------------------------------------------------|


everywhere i went to find the violin solo i could nerver find a good tab so i started to 
around with some notes and im quite sure i found a good sound. i'll show you both ways 
can do it.
[ Tab from: http://www.guitartabs.cc/tabs/d/dave_matthews_band/big_eyed_fish_tab_ver_5.html ]
-----------------------------------------------|
----------------------------------------17-----|   your gonna need a guitar
---9--7--9--11--12--11--12--14--16--19---------|   with a cut out in the side
-----------------------------------------------|
-----------------------------------------------|
-----------------------------------------------|

i personally like this way because of how high you have to go on the guitar it doesn't 
the sound like it would down lower on the guitar. it has a short quick sound like 
a violin would have and it sounds more like the real thing.

here is the other way to do the violin solo lower on the guitar for people without a cut 
on the side.


-----------2--3--2--3--5--7--10--12----------|
--5--3--5------------------------------------|  here is the other one
---------------------------------------------|
---------------------------------------------|
---------------------------------------------|
---------------------------------------------|

i don't have the chorus but you can check other tabs. i hope this helps you with the solo.
Comments