Dave Matthews Band - Big Eyed Fish Chords & Tabs

 

Big Eyed Fish Chords & Tabs

Dave Matthews Band Chords & Tabs

Version: 3 Type: Tab 0 ratings
1 star 2 stars 3 stars 4 stars 5 stars
comments

Big Eyed Fish Tab

   
Big eyed fish                    submited by colter wilson
dave mathews band
         E    D    Em    D
e-------------------------------------------------------------------------|
b-------------------------------------------------------------------------|
g--------9----5---------------------------7---------------7-9-------------|
d--------9----5-----5----4------------7-9---10-9-----7-9------------------|
a--------7----3-----7----5-----------------------10-----------------------|
e------0------------7----5------------------------------------------------|

 choras   Em   C    G    G somting
e---------0---------3------------------------------------------------------|
b---------0----1----3----3-------------------------------------------------|
g---------0----0----0----2-------------------------------------------------|
d---------2----2----0----0-------------------------------------------------|
a---------2----3----2----0-------------------------------------------------|
e---------0----3----3----2-------------------------------------------------|
[ Tab from: http://www.guitartabs.cc/tabs/d/dave_matthews_band/big_eyed_fish_tab_ver_3.html ]
Comments