Dave Matthews Band - Big Eyed Fish Chords & Tabs

 

Big Eyed Fish Chords & Tabs

Dave Matthews Band Chords & Tabs

Version: 2 Type: Tab 0 ratings
1 star 2 stars 3 stars 4 stars 5 stars
comments

Big Eyed Fish Tab

   
Dave Matthews - Big Eyed Fish
Transcribed from 'Busted Stuff'
Submitted by Ian C.T. vom Saal
Questions,Comments, Etc . . . ianvomsaal@cs.com


[Intros'/Verses'] e-------0---------------------------|
                  b-------0---------------------0-----|
                  g-------9-----5-5-----0-0-----4-----|
                  d-------9\----5-5\----5-5\----4-----|
                  a---7---7\---3-3-----2-2------2-----|
                  E---0---0\---0-0-----0-0------0-----|

[Verse]
Look at this big eyed fish swimming in the sea oh
How it dreams to be a bird swoop and diving through the breeze
So one day caught a big old wave up on to the beach
Now he's dead you see beneath the sea is where a fish should be
----------------------------------------------------------------
[Chorus]  [Em]    [C]    [G]    [Bm]
[ Tab from: http://www.guitartabs.cc/tabs/d/dave_matthews_band/big_eyed_fish_tab_ver_2.html ]
[Em]But oh [C]God
[G]Under the we[Bm]ight of life
[Em]Things [C]seem [G]brighter on the [Bm]other side
-------------------------------------------------------
[Verse]
You see this crazy man decided not to breathe
He turned red and blue - purple, colorful indeed
No matter how his friends begged and pleaded the man would not concede
And now he's dead you see the silly man should know you got to breathe
-----------------------------------------------------------------------
[Chorus]
[Em]Oh [C]God
[G]Under the we[Bm]ight of life
[Em]Things [C]seem [G]brighter on the [Bm]other side

[Em]Oh [C]God
[G]Under the we[Bm]ight of life
[Em]Things [C]seem [G]brighter on the [Bm]other side

[G]Nooo [C]waayyyy . . . [G]No [C]waayyy . . .
[G]Nooo [C]waayyy . . . [D/F#]out . . . [Dsus/F#]of  . . .
[Em]here [C] [G] [Bm]  - [Em] [C] [G] [Bm]
-------------------------------------------------------------
[Verse]
You see the little monkey sitting up in his monkey tree
One day decided to climb down and run off to the city
But look at him now lost tired living in the street
As good as dead you see what a monkey does stay up your tree
-------------------------------------------------------------
[Chorus]
[Em]Oh [C]God
[G]Under the we[Bm]ight of life
[Em]Things [C]seem [G]brighter on the [Bm]other side

[Em]Oh [C]God
[G]Under the we[Bm]ight of life
[Em]Things [C]seem [G]brighter on the [Bm]other side

[G]Nooo [C]waayyyy . . . [G]No [C]waayyy . . .
[G]Nooo [C]waayyy . . . [D/F#]out . . . [Dsus/F#]of  . . .
[Em]here [C] [G] [Bm]  - [Em] [C] [G] [Bm]
-------------------------------------------------------------
D/F# - 200230
Dsus/F# - 200233
Comments