Dave Matthews Band - Best Of Whats Around Chords & Tabs

 

Best Of Whats Around Chords & Tabs

Dave Matthews Band Chords & Tabs

Version: 1 Type: Tab 0 ratings
1 star 2 stars 3 stars 4 stars 5 stars
comments

Best Of Whats Around Tab

Dave Matthews Band
Best Of What's Around
Sean Spicer
driver8@phy.duke.edu

Verse
E--------------------1-1-1---0-0----------------1-1-1---0-0---|
B--------------------1-1-1---5-5----5-----5-5---1-1-1---5-5---|
G--------5--/9---9---2-2-2---0-0----5-----5-5---2-2-2---0-0---|
D--------7--/10-10---3-3-3---4-4----5-----7-7---3-3-3---4-4---|
A------7-7--/10-10---3-3-3---5-5----3-----7-7---3-3-3---5-5---|
E--2/5-5----/8---8---1-1-1-------------2--5-5---1-1-1---------|
[ Tab from: http://www.guitartabs.cc/tabs/d/dave_matthews_band/best_of_whats_around_tab.html ]
Chorus
E--5-------2---0---2---0------------------|
B--5---5---2---2---3---2------------------|
G--6---6---2---2---2---2---4--4--x-x------|
D--7---7---4---2---0---2---2--2--x-x------|
A--7---4---4---0-------0---2--2--x-x------|
E--5---0---2---------------0--4--x-x------|

Bridge
E------------------------------|      
B------------------------------|
G------------------------------|
D--7--5--4--3/---7--5--4--3----|
A--7--5--4--3/---7--5--4--3----|
E--5--3--2--1/---5--3--2--1----|

"Turns out..."
B------5---3---------|
G--6---6---4---4-----|
D--7---6---4---5-----|
A--7---4---2---5-----|
E--5-----------3-----|
====
Comments