Dave Matthews Band - American Baby Chords & Tabs

 

American Baby Chords & Tabs

Dave Matthews Band Chords & Tabs

Version: 5 Type: Tab 0 ratings
1 star 2 stars 3 stars 4 stars 5 stars
comments

American Baby Tab

   
Boyd's intro(on acoustic guitar)
E-----------------------------------------------|
B---13-----13-------16--16-15-13--11--------11--|
G-----------------------------------------------|
D-------13-----13---------------------13-13-----|
A-----------------------------------------------|
E-----------------------------------------------|
  ^  ^
(repeat)
If these walls came.....
E-----------------------------------------------|
B-----------------------------------------------|
G------8-----7----------------------------------|
D----------------6--6---------------------------|
A----6-6---5-5----------------------------------|
E----------------4--4---------------------------|
   ^ ^ ^ ^
(Main Guitar Part)
[ Tab from: http://www.guitartabs.cc/tabs/d/dave_matthews_band/american_baby_tab_ver_5.html ]
I..I..hold...hold..on to you............
E-----------------------------------------------|
B----------------3-4-3---------------3-4-3-4\6--|
G-----------5-------------------5---------------|
D------3-5-3-3-5-----------3-5-3-3-5------------|
A---3-5-----------------3-5---------------------|
E-----------------------------------------------|

Ending Jam
E------------------------------------------------|
B------------------------------------------------|
G----------8-8-8--7------------------------------|
D------------------------------------------------|
A---6--6---6-6-6--5------------------------------|
E---4--4-----------------------------------------|
   ^  ^  ^
(repeat untill end)


Sumitted by Preston L.

DMB RULES!!!
Comments