Dave Matthews Band - All Along The Watchtower Chords & Tabs

 

All Along The Watchtower Chords & Tabs

Dave Matthews Band Chords & Tabs

Version: 2 Type: Tab 0 ratings
1 star 2 stars 3 stars 4 stars 5 stars
comments

All Along The Watchtower Tab

   
Artist: Dave Matthews Band
Song: All ALong The Watchtower
Tabbed by: Mike Furey

Now listen here kids, I have seen all the other tabs and they suck ass. 
So i am gonna show you how to do it right! **standard tuning**

Intro:
When he starts singing slowly:Its and 
A MINOR    
-----
--1--
--2--Then to >
--2--
-----
-----         G
            --3- Then to this: ----
            --3-               ----
            ----               ----
            ----               -3--
            ----               -3--
            -3--               -1--

Then Just Follow That And Listen To The Live Stuff To Get The Kool 
Strumming Down!


      Questions Or Comments? E-mail me at, Juggalo388@aol.com
And put the SUBJECT as: TAB HELP


         RoCk
===========

[ Tab from: http://www.guitartabs.cc/tabs/d/dave_matthews_band/all_along_the_watchtower_tab_ver_2.html ]
Dave Matthews Band
(Originally by Bob Dylan)
All Along The Watchtower

Intro:
E--------------------------------------------
B--------------------------------------------
G--------------------------------------------
D------------------------x-------------------
A------------------------x-------------------
E--5--5--0h3-0-3----0h1--x---0h1-1--0h3-3----"No reason to get excited..."
E---------------------------------------------
B---------------------------------------------
G---------------------------------------------
D--7-7-----5-5----3-x-----3-----------5-------
A--7-7-----5-5----3-x-------3/5----------5/---
E--5-5---0h3-3--0h1-x--1----1/3---3------3/---


Chorus:
E--0---3---1---3---
B--1---3---1---3---
G--2---0---2---0---
D--2---0---3---0---
A--0---2---3---2---
E------3---1---3---


Solo:
Improvise w/ Am-G-F progession
Comments