Dave Matthews Band - 41 Violin Solo Chords & Tabs

 

41 Violin Solo Chords & Tabs

Dave Matthews Band Chords & Tabs

Version: 1 Type: Tab 0 ratings
1 star 2 stars 3 stars 4 stars 5 stars
comments

41 Violin Solo Tab

Submitted by:
Scott Erickson

some of the rythms are tricky, listen to the cd for the timing

|-violin
----------------------------------------------------------------------------------------------------
--12-12-12-12-10----12-12-12-12-10----12-12-12-12---12---------12---12----------------------------------
---------------------------------------------------------9---9-----------7-7h9-----------------------
----------------------------------------------------------------------------------------------------
----------------------------------------------------------------------------------------------------
----------------------------------------------------------------------------------------------------

--------------------------------------------10-10-10-101010-10-10-1010101010-10-10-8-7-8-7----7------------------------------------------------
-13-12-10-8--8---7-8-7--12-10-12-10--------------------------------------------------------10---8-----------------------------------------
---------------9---------------------7-9-7--------------------------------------------------------9----------------
----------------------------------------------------------------------------------------------------
----------------------------------------------------------------------------------------------------
----------------------------------------------------------------------------------------------------
[ Tab from: http://www.guitartabs.cc/tabs/d/dave_matthews_band/41_violin_solo_tab.html ]
----------------------------------------------------------------------------------------------------
------------------------------------------------------10--12--------10-12-10----------------------------------
-7-9-7---9-11-12-11-----9-11-12-11-----9-11-12-11--12----------11-12----------12-11-9-11-11---------
--------------------12-------------12-------------------------------------------------------------------
----------------------------------------------------------------------------------------------------
----------------------------------------------------------------------------------------------------
----------------------------------------------------------------------------------------------------

------------------------------------10--10--10-8-7-8---------------------------------------------------------
---------------------------------12------------------7--5-7-8--8-7-8-10----5-7-8-8----------------------
-11-9--11--11--11-9-11-9--9-11-9-----------------------------------------7--------------------------
----------------------------------------------------------------------------------------------------
----------------------------------------------------------------------------------------------------
----------------------------------------------------------------------------------------------------
                           |-flute 
--------7--------------------------------------------------------------12------------------------------
-7-8-10----10-8-7-8-7-----10-12-10-8---10-12-10-8--10--8-10---15-13-12----------------------------------------------------------------
----------------------9-7-7-9---------------------------------------------12-11--14-11--------------------------
----------------------------------------------------------------------------------------------------
----------------------------------------------------------------------------------------------------
----------------------------------------------------------------------------------------------------
             |-violin
-----------------------------10---------------------10--8-10-8--7-8--7-8-7-----------------------------------------
-12-10-8---------------10-12----12-10-12-10--------------------------------10--8-10-10-/-12------------------------------------
---------9-----9-11-12----------------------12-11-------------------------------------------------------------
-------------9---------------------------------------------------------------------------------------
----------------------------------------------------------------------------------------------------
----------------------------------------------------------------------------------------------------

questions comments:
axeman1033@aol.com
Comments