Dave Matthews Band - 41 Chords & Tabs


41 Chords & Tabs

Dave Matthews Band Chords & Tabs

Version: 3 Type: Tab 0 ratings
1 star 2 stars 3 stars 4 stars 5 stars

41 Tab

#----------------------------------PLEASE NOTE--------------------------------#
#This file is the author's own work and represents their interpretation of the#
#song. You may only use this file for private study, scholarship, or research.#

Date: Thu, 7 May 98 00:46:08 -0500
From: Pat Riley 
Subject: m/matthews_dave_band/#41.tab

#41 by Dave Matthews Band 
from the album Crash

transcribed by: Pat Riley


       Am11        Bm7            Em               Dadd4    

E |--------3--|--------2--|--------3--3-3--|----------------------|             
B |--------3--|--------3--|--------0--0-0--|--0--3--3--0h3-3--0h3-|
G |--------5--|--------2--|--------0--0-0--|--0--0--0--0---0--0---|
D |-----5-----|-----4-----|--------2--2-2--|--4--4--4--4---4--4---|
A |--0--------|--2--------|-----2-----2-2--|--5--5--5------5------|
E |-----------|-----------|--0--------0-0--|----------------------|

repeat a couple of times, then play the same chords for the verses

Come and see
I swear by now I'm playing time, against my troubles
I'm coming slow but speeding
Do you wish a dance and while I'm in the front
the play on time is won
but the difficulty is coming here


       G          D          Cmaj7        
[ Tab from: http://www.guitartabs.cc/tabs/d/dave_matthews_band/41_tab_ver_3.html ]
E |--3-------|--2-------|----0------|---0---|              
B |--0-------|--3-------|----0------|---0---|
G |--0-------|--2-------|----0------|---0---|
D |--0-------|--0-------|----2------|---2---|
A |--2-------|----------|----3------|---3---|
E |--3-------|----------|-----------|-------|

I will go in this way
And find my own way out

       G          D          C

E |--3-------|--2-------|----0------|---0---|              
B |--0-------|--3-------|----1------|---1---|
G |--0-------|--2-------|----0------|---0---|
D |--0-------|--0-------|----2------|---2---|
A |--2-------|----------|----3------|---3---|
E |--3-------|----------|-----------|-------|

I wont tell you to stay
But I'm coming to much more, me

On "Me," you hit the Am11 for the verse again.

Really, that should do it, just listen to the recording to 
get the rhythm.
Here are the remaining lyrics:                          

        All at once the ghosts come back
        Reeling in you now
        What if they came down crushing
        Remember when I used to play for 
        all of the loneliness that nobody notice now
        I'm begging slow I'm coming here
        Only waiting I wanted to stay
        I wanted to play
        I wanted to love you
        I'm only this far
        And only tomorrow leads my way

        I'm coming waltzing back and moving into your head
        Please, I wouldnt pass this by 
        I would take any more than
        What sort of man goes by 
        I will bring water
        Why wont you ever be glad
        It melts into wonder
        I came in praying for you
        why wont you run
        in the rain and play?
        Let the tears splash all over you.