Dave Matthews Band - 41 Chords & Tabs

 

41 Chords & Tabs

Dave Matthews Band Chords & Tabs

Version: 2 Type: Tab 0 ratings
1 star 2 stars 3 stars 4 stars 5 stars
comments

41 Tab

Intro
At the beginning of this song he picks these notes but then at the end after the
"let tears splash all over you" part he strums them 

e:----------------------|--------------|
B:--------------8----3--|--------------|
G:----5----7----7----0--|--h4--4--4p0--|
D:----2----4----5----4--|--------------|
A:----3----5----7----5--|--------------|
E:----5----7---(0)------|--------------|
[ Tab from: http://www.guitartabs.cc/tabs/d/dave_matthews_band/41_tab_ver_2.html ]
This is the verse part
e:-------------------------------------|
B:----8-X--8-8---8-8----8-X--8-8---8-8-|
G:----7-X--7-7---7-7----7-X--7-7---7-7-|
D:-------------------------------------|
A:-------------------------------------|
E:-5-----------5-----7-----------7-----|
 
e:-------------------------------------|
B:----8-X--8-8---8-8----8--X-8-8---8-8-|
G:----7-X--7-7---7-7----7--X-7-7---7-7-|
D:-------------------------------------|
A:-7-----------7-----5-----------5-----|
E:-------------------------------------|

"I will go in this way"
e:-------------------|
B:---------3---------|
G:--4------2------9--|
D:---------0---------|
A:--2-------------7--|
E:--3------2-----/8--|

this is the very end part
e:--10-----7--8--7-----5-----5--|
B:---8-----8--8--8-----8-----7--|
G:---9-----7--7--7-----7-----7--|
D:------------------------------|
A:------------------------------|
E:------------------------------|
Comments