Dave Matthews Band - 41 Chords & Tabs

 

41 Chords & Tabs

Dave Matthews Band Chords & Tabs

Version: 1 Type: Tab 0 ratings
1 star 2 stars 3 stars 4 stars 5 stars
comments

41 Tab

       Artist: Dave Matthews Band           |
                Song: #41                   |
             Album: Crash                   |
      Submitted By: Chris McAleenan         |
    My E-mail: disco_stu12@hotmail.com      |
--------------------------------------------|

Intro
E---------------------------------------------------
B---------------------------8--------3--------------
G------5---------7----------7-------0------0h2-0----
D------2---------4----------5------4---4-4-------4--
A----3----------5---------7------5------------------
E--5--------7-----------0---------------------------



Verse: 
E----------------------------------- 
B----8-8------8-8-----8-8-----8-8---
G----7-7------7-7-----7-7-----7-7---
A-----------------------------------
D------------------7-------5--------
E--5-------7------------------------

[ Tab from: http://www.guitartabs.cc/tabs/d/dave_matthews_band/41_tab.html ]
Or:
E------------------------------------
B------------------------------------
G------7-7------7-7-----7-7-----7-7--
D------7-7------7-7-----5-5-----4-4--
A-----------------------7-7--5-------
E---5--------7--------0--------------



After "But the difficulty's..."
E------------------------------------ 
B------------8----3------------------
G--5----7----7----x------------------
D--2----4----5----4------------------
A--3----5----7----5------------------
E--5----7----0-----------------------




"I will go in this way..."
E------------------- 
B---3---3--------3--
G---0---2----9---0--
D---0---0---10---0-- etc...
A---2---x---10---2--
E---3---2---/8---3--



Ending (strumming)
E--10----7-8-7---5----5-------------- 
B---8----8-8-8---8----7--------------
G---7----7-7-7---7----7--------------
D------------------------------------
A------------------------------------
E------------------------------------



Tim's part for "I'm going to stay..."
E----------------------------------- 
B--12p10--10---8--8---10------------
G--12-----12---7--7---12------------
D-----------------------------------
A-----------------------------------
E-----------------------------------

------------------------------------------------------------
       [E-mail Me at disco_stu12@hotmail.com]
Comments