Dave Matthews Band - 41 Chords & Tabs

 

41 Chords & Tabs

Dave Matthews Band Chords & Tabs

Version: 1 Type: Bass Tab 0 ratings
1 star 2 stars 3 stars 4 stars 5 stars
comments

41 Bass Tab

thanks,  I did that ASCII thing for you.  sorry I didnt know what it was 
before
#41
By Dave Matthews Band
Tabbed out by Tim McGivern

Note*-I always add my own variations in.  In this song the chorus bassline is slightly 
different from what I have hear.  I like mine better but you can listen to the song and 
figure it out using the notes I give you. Also,  I play the verse part on the E and A 
strings so I can slide in various places easier.

Intro:
|-----------------------------------|
|.----------------------------------|.     X 2
|.--------------------7----------5--|.                     
|--5--------7-----------------------|                      

|-----------------------------------| 
|--------------------------5\4------|
|---------------------7--------7-5--|
|--5--------7-----------------------|

|-------------------------------------------|--------------
|-------------------------------------------|--------------
|---------------------7----------5/\55------|--(beg. Of   
|--5--------7---------------------------8-7-|5---next line)

[ Tab from: http://www.guitartabs.cc/tabs/d/dave_matthews_band/41_btab.html ]
Verse:  X3
|--------------------------------------------------------| 
|.-------------------------------------------------------|.  
|.-----------------------5-6-7-7-7-7-7-7-6-5-5-5-5-7-5-8-|.
|--5-5-5-5-5-6-7-7-7-7-7---------------------------------| 

After that play this next one once and then go back into the verse one more time

|---------------------------------------------------------|
|---------------------------------------------------------|
|-----------------------5-6-7-7-7-7-7-7-6-5-5-5-5\--------|
|-5-5-5-5-5-6-7-7-7-7-7----------------------------8-8-8-7|

Verse: x1

This is not how it is on the album but the same notes are used.  If you get it right 
it sounds great


|-----------------------------5/7-------------------|   
|.----------------------2-4-5-----5-4-2------------.|    
|.----------2-3-5-2-3-5-----------------5-3-2------.|   
|-5-3---3-5-----------------------------------5-3---| 

This is done once then it goes back into the verse line for awhile and then it returns 
to the chorus line for about 5 times and then it returns to the verse portion where you 
can basically add your own variations


Thast it and I ope you enjoy it.  Like I said the chorus version is wrong but it sounds great.  The album version uses the same scale.

Any corrections or comments just Email me at NeskibumPF@aol.com
Comments