Dave Matthews Band - 34 Chords & Tabs

 

34 Chords & Tabs

Dave Matthews Band Chords & Tabs

Version: 2 Type: Bass Tab 0 ratings
1 star 2 stars 3 stars 4 stars 5 stars
comments

34 Bass Tab

#34 by Dave Matthews Band from Under the Table and Dreaming (complete)
(Tabbed by Colin Ruddick)

part one (1)
G-----------11----------7-6--------------------
D-----9---9------11---7-----4--7---------------
A-0-7---7------9----5------------5----7--7--9--
E----------------------------------------------
[ Tab from: http://www.guitartabs.cc/tabs/d/dave_matthews_band/34_btab_ver_2.html ]
part two (2)
G-------------7-------------
D-----9---0-7---------------
A-0-7-----------5----7--7--9
E---------------------------

part three (3)- Fast and fun part
G------------------------
D------------------------
A-5-4-----5-7-7-7-7-7-7--
E-----5-7----------------



Enjoy. If you have any corrections e-mail me @ colrudd99@hotmail.com
or to send me any bass tabs you want.
Comments