Dave Herrick - Load Bearing Chords & Tabs

 

Load Bearing Chords & Tabs

Dave Herrick Chords & Tabs

Version: 1 Type: Tab 0 ratings
1 star 2 stars 3 stars 4 stars 5 stars
comments

Load Bearing Tab

Dave Herrick - Load Bearing

e--------------------------------------------|
b--------------------------------------8-10~8|
g----------------8-10~8-----------8-10-------|
d-----------8-10-------------8-10------------|
a------8-10-------------8-10-----------------|
e-8-10---------------------------------------|


e----------------------------10h12-13-|
b-------------------10h12-13----------|
g-------------10h12-------------------|
d-------10h12-------------------------|
a-10h12-------------------------------|
e-------------------------------------|
[ Tab from: http://www.guitartabs.cc/tabs/d/dave_herrick/load_bearing_tab.html ]
e-10h12~-10h12~-10h12~-10h12~-10------|
b-10h12~-10h12~-10h12~-10h12~-10------|
g-------------------------------12-10-|
d-------------------------------------|
a-------------------------------------|
e-------------------------------------|


e--------12-14~14~14~14~--14~-14--|
b-----14----14~14~14~14~--15~-15--|
g--14---------------------14~-----|
d---------------------------------|
a---------------------------------|
e---------------------------------|

e-6p3-5p3-------------------|
b---------6p3-5p3-----------|
g-----------------5p3-4p3---|
d-------------------------5-|
a---------------------------|
e---------------------------|
Comments