Dave Herrick - Load Bearing Chords & Tabs

 

Load Bearing Chords & Tabs

Dave Herrick Chords & Tabs

Version: 1 Type: Bass Tab 0 ratings
1 star 2 stars 3 stars 4 stars 5 stars
comments

Load Bearing Bass Tab

Dave Herrick - Load Bearing
George

G----------------------------------------------
D-------------------------------------------0--
A-----------2--2---0--2-2---0--2-2--0p2p0p2---2
D-12/3--9/2------------------------------------

pre chours:

G-----------------------------
D-----------------------------
A-7--5----7--5----7--5-4p5p4p0
D-----------------------------

chorus:

G-----------------------------------
D-----------------------------------
A-5--5-5-5-------5--5-5-5-----------  X2
D-----------5--7----------5--7~5-4-0
[ Tab from: http://www.guitartabs.cc/tabs/d/dave_herrick/load_bearing_btab.html ]
G---------------------------------------------------------------------
D---------------------------------------------------------------------
A-5-5-5-5-5-5------5--5-5-5------5--5-5-5------5-5-5-5-5-5------------
D-------------3--5----------5--7----------3--5-------------3-5-7-5-4-0

Bass solo:

G--------------------------------------------------------7/19p21p19p17p18p10p16p0
D---0---0-------0p2p5p2p3p2p0--3----3----3--3p5p8p5p6p5p3------------------------
A--------------------------------------------------------------------------------
D-0--0-0-00-0-00--------------3--3-3-33-3-33-------------------------------------

Outro:

G----------------------------------------0p12-------------------
D---17---16---17-16--18-------------0p12------------------------
A------------------------------0p12-----------------------------
D-19---18---17---16--18---0p12-----------------0--0-----0-0---00
Comments