Dave Herrick - Kick The Walrus Chords & Tabs

 

Kick The Walrus Chords & Tabs

Dave Herrick Chords & Tabs

Version: 1 Type: Tab 0 ratings
1 star 2 stars 3 stars 4 stars 5 stars
comments

Kick The Walrus Tab

Dave Herrick - Kick the Walrus
Gregg (Gregg@yahoo.con)
[ Tab from: http://www.guitartabs.cc/tabs/d/dave_herrick/kick_the_walrus_tab.html ]
Drop D tuining
e----------------------------0-----------------------------------0
a--------------------------2-1---------------------------------2-1
d--------------------------3-0---------------------------------3-0
g--------------------------0-0-----------0-2-2-2-0-0-0-3-3-3-0-0-0
b-0-3--------0-0-0---------3-3-0-2-2-0-3-0-2-2-2-0-0-0-3-3-3-0-3-3
d-0-3-4-0-0-0-----3--3-2-2-3-0-----------0-2-2-2-0-0-0-3-3-3-0-3-0

e--------------------------------------------
a--------------------------------------------
d--------------------------------------------
g-1-0-1-0-1-0-1-0-1-0---3-3-0--0--3--4-5-----
b-1-0-1-0-1-0-1-0-1-0---3-3-0--0--3--4-5-----
d-1-0-1-0-1-0-1-0-1-0---3-3-0--0--3--4-5-----

One of his simpler songs.  excellent song
Comments