Dave Herrick - In Heat Chords & Tabs

 

In Heat Chords & Tabs

Dave Herrick Chords & Tabs

Version: 1 Type: Bass Tab 0 ratings
1 star 2 stars 3 stars 4 stars 5 stars
comments

In Heat Bass Tab

Dave Herrick - In Heat

          G:--------------------------------------------------------
          D:--------------------------------------------------------
          A:--------------------------------------------------------
          E:-9\-2-2-2-2-2-2/-5-5-5-5-5-5\-2-2-2-2-2-2/-8-8-8-7-7-7\-
[ Tab from: http://www.guitartabs.cc/tabs/d/dave_herrick/in_heat_btab.html ]
          G:--------------------------------------------------------
          D:--------------------------------------------------------
          A:--------------------------------------------------------
          E:-2-2-2-2-2-2/-5-5-5-5-5-5\-2-2-2-2-2-2/-8-8-8-7-7-7\--2-

          G:------------------------------------------------------------
          D:------------------------------------------------------------
          A:-----------4--4--3--3--2-3-2-3-2--------4--4--3--3--2-3/-7\-
          E:-9\--2--2-------------------------2--2----------------------

          G:--------------------------------------------------------
          D:--------------------------------------------------------
          A:-------4--4--3--3--2-3-2-3-2--------4--4--3--3--2-3/-7\-
          E:-2--2-------------------------2--2----------------------
Comments