Dave Herrick - Hearing Things Chords & Tabs

 

Hearing Things Chords & Tabs

Dave Herrick Chords & Tabs

Version: 1 Type: Tab 0 ratings
1 star 2 stars 3 stars 4 stars 5 stars
comments

Hearing Things Tab

   
Dave Herrick
Hearing Things

E--------------------
A--------------------
D-----5----7----5----
G-5-7--5-7--5-7--5-7-
B--------------------
D--------------------

E---------------------------------------------------------
A---------------------------------------------------------
D---------------------------------------------------------
G--------3--5---0--0--0--0-0-0-0-0--0--0--0-0-0-0---------
B--------3--5---0--0--0--0-0-0-0-0--0--0--0-0-0-0---------
D-0/7^---3--5---0--0--0--0-0-0-0-0--0--0--0-0-0-0--3p5p7^-
[ Tab from: http://www.guitartabs.cc/tabs/d/dave_herrick/hearing_things_tab.html ]
(palm muted)
E-----------------------------------------------------------------
A-----------------------------------------------------------------
D-----------------------------------------------------------------
G-5-5-5-5-5-5-5-5-3-3-3-3-3-3-3-3-5-5-5-5-5-5-5-5-3-3-3-3-3-3-3-3-
B-5-5-5-5-5-5-5-5-3-3-3-3-3-3-3-3-5-5-5-5-5-5-5-5-3-3-3-3-3-3-3-3-
D-5-5-5-5-5-5-5-5-3-3-3-3-3-3-3-3-5-5-5-5-5-5-5-5-3-3-3-3-3-3-3-3-

(continued)
E---------------------------------------------------------------
A---------------------------------------------------------------
D---------------------------------------------------------------
G-5-5-5-5-5-5-5-5-3-3-3-3-3-3-3-5-5-5-5-5-5-5-5-7-7-7-7-9-9-9-9-
B-5-5-5-5-5-5-5-5-3-3-3-3-3-3-3-5-5-5-5-5-5-5-5-7-7-7-7-9-9-9-9-
D-5-5-5-5-5-5-5-5-3-3-3-3-3-3-3-5-5-5-5-5-5-5-5-7-7-7-7-9-9-9-9-

E----------------------------
A----------------------------
D-7---5---9---7---8-9--5---7-
G----------------------------
B-5---3---7---5---6-7--3---5-
D----------------------------
Comments