Dave Herrick - Fuck You Bitch Chords & Tabs

 

Fuck You Bitch Chords & Tabs

Dave Herrick Chords & Tabs

Version: 1 Type: Bass Tab 0 ratings
1 star 2 stars 3 stars 4 stars 5 stars
comments

Fuck You Bitch Bass Tab

Dave Herrick - Fuck You Bitch
Sunny (SuNNieDEliGHT@bigreen.com)

G-----------------5-5-5-------
D-----------------------------
A---------------3--3-3-3-3-3-3
D-0-3---0-3-0-3---------------
[ Tab from: http://www.guitartabs.cc/tabs/d/dave_herrick/fuck_you_bitch_btab.html ]
G-----------------------------------------
D-----5----5---5-7-7-7-7-7-7-7-7-7-7-7-7-7
A-----5-----------------------------------
D-0-3---0-3-0-3-5-5-5-5-------------------

G---------------
D--------------- 
A---------------     
D-0-0---0-0-0---
Comments