Dave Herrick - After I Wake Chords & Tabs

 

After I Wake Chords & Tabs

Dave Herrick Chords & Tabs

Version: 1 Type: Bass Tab 0 ratings
1 star 2 stars 3 stars 4 stars 5 stars
comments

After I Wake Bass Tab

Dave Herrick - After I Wake
Submitted By: 


New INternet Album!!!!
DOwnloaded December 14th 2002

[ Tab from: http://www.guitartabs.cc/tabs/d/dave_herrick/after_i_wake_btab.html ]
G-----------------------------------------------------------------|
D-----------------------------------------------------------------|
A-----------------5-5-5-5-5-5-5-5-----------------5-5-5-5-5-5-5-5-|
E-0-0-0-0-0-0-0-0-----------------0-0-0-0-0-0-0-0-----------------|

G---------------------------------|
D---------------------------------| 
A-----------------5---------------|
E-0-------------------------------|
Comments