Dave Grusin - Friends And Strangers Chords & Tabs

 

Friends And Strangers Chords & Tabs

Dave Grusin Chords & Tabs

Version: 1 Type: Bass Tab 0 ratings
1 star 2 stars 3 stars 4 stars 5 stars
comments

Friends And Strangers Bass Tab

   
Dave Grusin - Friends and Strangers
TABBED BY DEREK UITTENBROEK

Hey everyone this is my first tab
i have only been playing for about 4 months
so im sorry if its a bit off in some places
especially the solo :S it took me a long time!
let me know what u think!
-d

INTRO                         X2
                              |
-12/-14-12----14/-16-12-17-14-|------------------------------
-----------14-----------------|--12h14--10h12--r-------------
------------------------------|------------------------------
------------------------------|------------------------------

-12/-14-12----14/-16-12-17-14--r--12h14-12--------------12-14
-----------14-------------------------------15-15-15-14------
-------------------------------------------------------------
-------------------------------------------------------------

-------------------------------------------------------------
-----------5-7---------5-7-----------------------------------
-8-8-8--7------8-8-8-7---------------------------------------
-------------------------------------------------------------

VERSE (played 8 times with variations)

-------------------------------------------------------------
----------5-7------------------------------------------------
-8-8-8--7----------------------------------------------------
-------------------------------------------------------------

VERSE VARIATION 1

-------------------------------------------------------------
----------5--5-7---------------------------------------------
-8-8-8--7--7-------------------------------------------------
-------------------------------------------------------------

VERSE VARIATION 2

-------------------------------------------------------------
---10---------5-7--------------------------------------------
-88--8-1-1-7-------------------------------------------------
-------------------------------------------------------------

CHORUS

-------------------------------------------------------------
-5/-7--5----7/-9--5-10-7-------------------------------------
----------7--------------5-5-5-------------------------------(3x)
-------------------------------------------------------------

-------------------------------------------------------------
----------5-7--5h7p5--5h7p5----------------------------------
-8-8-8--7----------------------------------------------------
-------------------------------------------------------------(3x)

SOLO

---12nh~--------5nh~-------------12nh~---19nh~----24b-------
------------------------------------------------------------
------------------------------------------------------------
------------------------------------------------------------
[ Tab from: http://www.guitartabs.cc/tabs/d/dave_grusin/friends_and_strangers_btab.html ]
-12h14p12-----------------------------------10-12-/14-12-12-
----------12h14p12-14----------------10--12-----------------
-----------------------10-----10-12-------------------------
------------------------------------------------------------

----------12-12------------12-14-16-16-12-12-14-14-----12---
-/12-------------12h14------------------------------12------
------10----------------------------------------------------
------------------------------------------------------------

--------------14-12---------------12-------14-r-16-14----16-
-/12-------------------12h14-12-14----12-14------------14----
----10------------------------------------------------------
-------12-12------------------------------------------------

-10-12--r---17h19p17-----17----17----------------11----11---
----------------------19----19----18-17--r-11h13----13----13
------------------------------------------------------------
------------------------------------------------------------

--------12-14-16-12-14-------------10-10-9-------9----------
--12-14----------------14-10-10-10---------10-8---10-10---10
--------------------------------------------------------12--
------------------------------------------------------------

------9---------------------10-14-14-12----------12-10------
10-10---10----10---10-10h12-------------10-10-10-------12---
-----------12---12------------------------------------------
------------------------------------------------------------

------------------------------------------------------------
-6h-8-6h-8\-------------------------------------------------
------------------------------------------------------------
------------------------------------------------------------

Bridge                        X2
                              |
-12/-14-12----14/-16-12-17-14-|------------------------------
-----------14-----------------|--12h14--10h12--r-------------
------------------------------|------------------------------
------------------------------|------------------------------

-12/-14-12----14/-16-12-17-14--r--12h14-12--------------12-14
-----------14-------------------------------15-15-15-14------
-------------------------------------------------------------
-------------------------------------------------------------

------------------------------------------------------------
-----------5-7---------5-7----------------------------------
-8-8-8--7------8-8-8-7--------------------------------------
------------------------------------------------------------

ENDING

------------------------------------------------------------
----------5-7--5h7p5--5h7p5---------------------------------
-8-8-8--7---------------------------------------------------
------------------------------------------------------------ 

SONG STRUCTURE

INTRO
VERSE
CHORUS
VERSE
CHORUS
SOLO
BRIDGE
VERSE
CHORUS
END
Comments