Dave Dobbyn - Loyal Chords & Tabs

 

Loyal Chords & Tabs

Dave Dobbyn Chords & Tabs

Version: 1 Type: Tab 0 ratings
1 star 2 stars 3 stars 4 stars 5 stars
comments

Loyal Tab

4/4 time.


INTRO:
     ,   .   ,   .   ,   .   ,   .      ,   .   ,   .   ,   .   ,   .
||-----------------------------------|---------------------------------||
||----------h12-----h12-h12----------|-h12-----h12-h12-----------------||
||*-------------------------h12------|-----------------h12-----h12----*||
||*-h12---------h12-------------h12--|-----h12-------------h12--------*||
||-----------------------------------|---------------------------------||
||-----------------------------------|---------------------------------||


     ,   .   ,   .   ,   .   ,   .      ,   .   ,   .   ,   .   ,   .
||-----------------------------------|----------------------------------|
||----------h12-----h12-h12----------|-h12-----h12-h12------------------|
||*-------------------------h12------|-----------------h12-----h12------|
||*-h12---------h12-------------h12--|-----h12-------------h12------0---|
||-----------------------------------|----------------------------------|
||-----------------------------------|----------------------------------|


  ,  .  ,  .  ,  .  ,  .     ,  .  ,  .  ,  .  ,  .
|-------------------------|--------------5------------||
|----------3--------3-----|-----------3-----3---------||
|-------0--------------0--|--------0-----------0-----*||
|----2-----------2--------|-----4-----------------4--*||
|-3-----------------------|-/5------------------------||
|-------------------------|---------------------------||


VERSE 1:
    ,  .  ,  .  ,  .  ,  .   ,  .  ,  .  ,  .  ,  .   ,  .  ,  .  ,  .  ,  .
||-------------------------|------------------------|------------------------|
||-------------------------|------------------------|----------3--------3----|
||*-0--0--0--0--0--0--0--0-|-0--0--0--0--0--0--0--0-|-------0-----0--------0-|
||*-5--5--5--5--5--5--5--5-|-5--5--5--5--5--4--5--0-|----2-----------2-------|
||-------------------------|------------------------|-3----------------------|
||-------------------------|------------------------|------------------------|
    I can't remember         last time I thanked you  Keeping  my  distance
And I love you tender, but we must walk away          Keeping you on my

   ,  .  ,  .  ,  .  ,  .   ,  .  ,  .  ,  .  ,  .   ,  .  ,  .  ,  .  ,  .
|--------------5----------|------------------------|------------------------|
|-----------3-----3-------|------------------------|------------------------|
|--------0-----------0----|-0--0--0--0--0--0--0--0-|-0--0--0--0--0--0--0--0-|
|-----4-----------------4-|-5--5--5--5--5--5--5--5-|-5--5--5--5--5--4--5--0-|
|-/5----------------------|------------------------|------------------------|
|-------------------------|------------------------|------------------------|
  unintentionally           Too close for comfort just aint close enough
  greeting card file   And if things were different, but you know it aint

  ,  .  ,  .  ,  .  ,  .     ,  .  ,  .  ,  .  ,  .
|-------------------------|--------------5------------||
|----------3--------3-----|-----------3---------------||
|-------0-----0--------0--|--------0-----------------*||
|----2-----------2--------|-----4----------h5--------*||
|-3-----------------------|-/5----------------h5------||
|-------------------------|---------------------------||
  If I could have   more    time we would brainstorm
  Let's get on with it, Love                And call me


CHORUS:
   ,  .  ,  .  ,  .  ,  .   ,  .  ,  .  ,  .  ,  .   ,  .  ,  .  ,  .  ,  .
||------------------------|-------------0----------|------------------------|
||-------3--------3-------|----------5-----5-------|----------3--------3----|
||----0--------0----------|-------0-----------0----|-------0-----0--------0-|
||-5--------4--------5--4-|----4-----------------0-|----2-----------2-------|
||------------------------|------------------------|-3----------------------|
||------------------------|-0----------------------|------------------------|
   Loyal                             I'll say you're Loyal              too

   ,  .  ,  .  ,  .  ,  .   ,  .  ,  .  ,  .  ,  .   ,  .  ,  .  ,  .  ,  .
|--------------5----------|------------------------|-------------0----------|
|-----------3-----3-------|-------3--------3-------|----------5-----5-------|
|--------0-----------0----|----0--------0----------|-------0-----------0----|
|-----4-----------------4-|-5--------4--------5--4-|----4-----------------0-|
|-/5----------------------|------------------------|------------------------|
|-------------------------|------------------------|-0----------------------|
              I know you're Loyal                              I feel you're

  ,  .  ,  .  ,  .  ,  .    ,  .  ,  .  ,  .  ,  .   ,  .  ,  .  ,  .  ,  .
|------------------------|--------------5----------|------------------------|
|----------3--------3----|-----------3-----3-------|-------3--------3-------|
|-------0-----0--------0-|--------0-----------0----|----0--------0----------|
|----2-----------2-------|-----4-----------------4-|-5--------4--------5--4-|
|-3----------------------|-/5----------------------|------------------------|
|------------------------|-------------------------|------------------------|
  Loyal               too               Call  me     Loyal

  ,  .  ,  .  ,  .  ,  .   ,  .  ,  .  ,  .  ,  .    ,  .  ,  .  ,  .  ,  .
|-------------0----------|------------------------|--------------5----------|
|----------5-----5-------|----------3--------3----|-----------3-----3-------|
|-------0-----------0----|-------0-----0--------0-|--------0-----------0----|
|----4-----------------4-|----2-----------2-------|-----4-----------------4-|
|------------------------|-3----------------------|-/5----------------------|
|-0----------------------|------------------------|-------------------------|
                I hold you Loyal               too               We are

  ,  .  ,  .  ,  .  ,  .    ,  .  ,  .  ,  .  ,  .
|-0-----------------------|-5-----------------------||
|-1-----------------------|-3-----------------------||
|-0-----------------------|-0-----------------------||
|-2-----------------------|-4-----------------------||
|-3-----------------------|-5-----------------------||
|-------------------------|-------------------------||
  Loyal                     Keep it that way...


BRIDGE 1:
    ,   .   ,   .   ,   .   ,   .      ,   .   ,   .   ,   .   ,   .
||----------------------------------|---------------------------------|
||---------h12-----h12-h12----------|-h12-----h12-h12-----------------|
||-------------------------h12------|-----------------h12-----h12-----|
||-h12---------h12-------------h12--|-----h12-------------h12---------|
||--10------------------------------|---------------------------------|
||----------------------------------|---------------------------------|

[ Tab from: http://www.guitartabs.cc/tabs/d/dave_dobbyn/loyal_tab.html ]
   ,   .   ,   .   ,   .   ,   .      ,   .   ,   .   ,   .   ,   .
|----------------------------------|---------------------------------|
|---------h12-----h12-h12----------|-h12-----h12-h12-----------------|
|-------------------------h12------|-----------------h12-----h12-----|
|-h12---------h12-------------h12--|-----h12-------------h12---------|
|----------------------------------|--10-----------------------------|
|--8-------------------------------|---------------------------------|
                                     Keep it that way girl...

   ,   .   ,   .   ,   .   ,   .      ,   .   ,   .   ,   .   ,   .
|----------------------------------|---------------------------------|
|---------h12-----h12-h12----------|-h12-----h12-h12-----------------|
|-------------------------h12------|-----------------h12-----h12-----|
|-h12---------h12-------------h12--|-----h12-------------h12---------|
|--10------------------------------|---------------------------------|
|----------------------------------|---------------------------------|


   ,   .   ,   .   ,   .   ,   .      ,   .   ,   .   ,   .   ,   .
|----------------------------------|---------------------------------||
|---------h12-----h12-h12----------|-h12-----h12-h12-----------------||
|-------------------------h12------|---------------------------------||
|-h12---------h12-------------h12--|-----h12-------------h5----------||
|----------------------------------|--10-------------h5------h5------||
|--8-------------------------------|---------------------------------||



VERSE 2: (as before)
Out in the battle, gunfire anew
Where does allegiance lie?
Sometimes when all of your hopes, all of your dreams
Are too much to value in one moment
And all of us anxious, but why hurry love?
History's here and now, oh...
And why are you waiting? Waiting for what?
The history of some love


CHORUS (as before)


BRIDGE 2:
    ,  .  ,  .  ,  .  ,  .    ,  .  ,  .  ,  .  ,  .   ,  .  ,  .  ,  .  ,  .
||-------------------------|--------------5----------|------------------------|
||-----------3--------3----|-----------3-----3-------|----------3--------3----|
||*-------0-----0--------0-|--------0-----------0----|-------0-----0--------0-|
||*----2-----------2-------|-----4-----------------4-|----2-----------2-------|
||--3----------------------|-/5----------------------|-3----------------------|
||-------------------------|-------------------------|------------------------|
                                       Baby
   Haven't  you  known  me   long enough, girl?

   ,  .  ,  .  ,  .  ,  .   ,  .  ,  .  ,  .  ,  .    ,  .  ,  .  ,  .  ,  .
|--------------5----------|------------------------|--------------5----------|
|-----------3-----3-------|----------3--------3----|-----------3-----3-------|
|--------0-----------0----|-------0-----0--------0-|--------0-----------0----|
|-----4-----------------4-|----2-----------2-------|-----4-----------------4-|
|-/5----------------------|-3----------------------|-/5----------------------|
|-------------------------|------------------------|-------------------------|
                                                                     We are
               If I could   see your heart right now             Maybe there'd

  ,  .  ,  .  ,  .  ,  .     ,  .  ,  .  ,  .  ,  .
|-------------------------|--------------5------------||
|----------3--------3-----|-----------3-----3---------||
|-------0-----0--------0--|--------0-----------0-----*||
|----2-----------2--------|-----4-----------------4--*||
|-3-----------------------|-/5------------------------||
|-------------------------|---------------------------||
  Loyal
  be   a    change    or    two     And you can call me


CHORUS (as before)


ENDING:
   ,  .  ,  .  ,  .  ,  .   ,  .  ,  .  ,  .  ,  .   ,  .  ,  .  ,  .  ,  .
||------------------------|-------------0----------|------------------------|
||-------3--------3-------|----------5-----5-------|----------3--------3----|
||----0--------0----------|-------0-----------0----|-------0-----0--------0-|
||-5--------4--------5--4-|----4-----------------0-|----2-----------2-------|
||------------------------|------------------------|-3----------------------|
||------------------------|-0----------------------|------------------------|
   Loyal                                   I'll  say    you're Loyal      too

   ,  .  ,  .  ,  .  ,  .   ,  .  ,  .  ,  .  ,  .   ,  .  ,  .  ,  .  ,  .
|--------------5----------|------------------------|-------------0----------|
|-----------3-----3-------|-------3--------3-------|----------5-----5-------|
|--------0-----------0----|----0--------0----------|-------0-----------0----|
|-----4-----------------4-|-5--------4--------5--4-|----4-----------------0-|
|-/5----------------------|------------------------|------------------------|
|-------------------------|------------------------|-0----------------------|
              I know you're Loyal                                   I    feel

  ,  .  ,  .  ,  .  ,  .    ,  .  ,  .  ,  .  ,  .   ,  .  ,  .  ,  .  ,  .
|------------------------|--------------5----------|------------------------|
|----------3--------3----|-----------3-----3-------|-------3--------3-------|
|-------0-----0--------0-|--------0-----------0----|----0--------0----------|
|----2-----------2-------|-----4-----------------4-|-5--------4--------5--4-|
|-3----------------------|-/5----------------------|------------------------|
|------------------------|-------------------------|------------------------|
     you're Loyal     too               Call  me     Loyal

  ,  .  ,  .  ,  .  ,  .   ,  .  ,  .  ,  .  ,  .    ,  .  ,  .  ,  .  ,  .
|-------------0----------|------------------------|--------------5----------|
|----------5-----5-------|----------3--------3----|-----------3-----3-------|
|-------0-----------0----|-------0-----0--------0-|--------0-----------0----|
|----4-----------------4-|----2-----------2-------|-----4-----------------4-|
|------------------------|-3----------------------|-/5----------------------|
|-0----------------------|------------------------|-------------------------|
                 I     hold   you Loyal                          We are

  ,  .  ,  .  ,  .  ,  .    ,  .  ,  .  ,  .  ,  .   ,  .  ,  .  ,  .  ,  .
|-3-----------------------|-3----------------------|-3----------------------|
|-3-----------------------|-3----------------------|-3----------------------|
|-5-----------------------|-5----------------------|-5----------------------|
|-5-----------------------|-5----------------------|-5----------------------|
|-3-----------------------|-3----------------------|-3----------------------|
|-------------------------|------------------------|------------------------|
  Loyal                     Keep it that way, baby   Keep it that way, baby

  ,  .  ,  .  ,  .  ,  .   ,  .  ,  .  ,  .  ,  .
|-3-----------------3----|-3----------------------||
|-3-----------------3----|-3----------------------||
|-5-----------------5----|-4----------------------|| Fine.
|-5-----------------5----|-5----------------------||
|-3-----------------3----|-5----------------------||
|------------------------|-3----------------------||
  Keep it that way now!
Comments