Dave Barnes - Prayers Of The Saints Chords & Tabs

 

Prayers Of The Saints Chords & Tabs

Dave Barnes Chords & Tabs

Version: 1 Type: Chords 0 ratings
1 star 2 stars 3 stars 4 stars 5 stars
comments

Prayers Of The Saints Chords

   
-------------------------------------------------------------------------------
		 		Prayers of the Saints - Dave Barnes
-------------------------------------------------------------------------------
Tabbed by: Chris Case
Email: chris@northsouthband.com
Website: www.northsouthband.com
Album: Brother, Bring the Sun

Tuning: Stardard, Capo 5
All numbers relative to Capo

Chords Used
    Dm  Am7  F  E  A2 G
e|-----------1--0--0--3------------------------------------------------------|
B|---6---5---1--0--0--3------------------------------------------------------|
G|---5---5---2--1--4--4------------------------------------------------------|
D|---3---5---3--2--2--5------------------------------------------------------|
A|---5-------3--2--0--5------------------------------------------------------|
E|-------5---1--0--0--3------------------------------------------------------|

Dm                     Am7          
Mama's alone where the sirens call
F                                              Dm   Am7  F
They're filling up her mind like they fill the hall
Dm                     Am7
Mama can't fight what she don't know
F                                Dm    Am7  F
Baby looks fine while the cancer grows
E
Don't worry
[ Tab from: http://www.guitartabs.cc/tabs/d/dave_barnes/prayers_of_the_saints_crd.html ]
                 Am               E
Talking bout the prayers of the saints
                 Am         E
They can do what most men can't
F                           E             
God bends his ears just to hear what they say
                   Am         E
Something bout the way they move
                   Am          E 
Makes them do the things they do
F                     E          
Somewhere a saint is praying for you

Dm  Am7  F  Dm  Am7  F

Dm                     Am7  
Papa's alone while the sun sets red
F                                  Dm   Am7  F
He stands there fine, baby lays in bed
Dm                       Am7
Papa blames this on what he don't know
F					     Dm  Am7  F
Baby looks fine while the cancer grows
E
Oooohhh

                 Am               E
Talking bout the prayers of the saints
                 Am         E
They can do what most men can't
F                           E             
God bends his ears just to hear what they say
                   Am         E
Something bout the way they move
                   Am          E 
Makes them do the things they do
F                     E          
Somewhere a saint is praying for you

Bridge:
F G Am   F G Am  F G Am  F E


| /  slide up
| \  slide down
| h  hammer-on
| p  pull-off
| ~  vibrato
| +  harmonic
| x  Mute note
===============================================================================
Comments