Daughter - Youth Chords & Tabs

 

Youth Chords & Tabs

Daughter Chords & Tabs

Version: 3 Type: Tab 0 ratings
1 star 2 stars 3 stars 4 stars 5 stars
comments

Youth Tab

Song: 'Youth' by Daughter (Elena Tonra)

Standard Tuning
Capo 5th fret
 

           Shadows settle on the place…
e|------------------------------------------------------------------------|
B|--------3-------3/5-------5------5/8--------8------8\7------7-------7\3-|
G|----0-------0---------0-------0---------0-------0--------0-------0------|
D|------------------------------------------------------------------------|
A|--2---2---2---2-----3---3---3---3-----7---7---7---7----5---5---5---5----|
E|------------------------------------------------------------------------|
            Our minds are troubled by…
e|------------------------------------------------------------------------|
B|--------3-------3/5-------5------5/8--------8------8\7------7-------7\3-|
G|----0-------0---------0-------0---------0-------0--------0-------0------|
D|------------------------------------------------------------------------|
A|--2---2---2---2-----3---3---3---3-----7---7---7---7----5---5---5---5----|
E|------------------------------------------------------------------------|
[ Tab from: http://www.guitartabs.cc/tabs/d/daughter/youth_tab_ver_3.html ]
    Destroy the middle...                                       From the
e|------------------------------------------------------------------------|
B|--------3-------3/5-------5------5/8--------8------8\7------7-------7\3-|
G|----0-------0---------0-------0---------0-------0--------0-------0------|
D|------------------------------------------------------------------------|
A|--2---2---2---2-----3---3---3---3-----7---7---7---7----5---5---5---5----|
E|------------------------------------------------------------------------|
                                                                                Perfect 
start to the finish line...                     But if
e|------------------------------------------------------------------------|
B|--------3-------3/5-------5------5/8--------8------8\7------7-------7\3-|
G|----0-------0---------0-------0---------0-------0--------0-------0------|
D|------------------------------------------------------------------------|
A|--2---2---2---2-----3---3---3---3-----7---7---7---7----5---5---5---5----|
E|------------------------------------------------------------------------|

   You’re still bleeding you’re the lucky one....
e|-----------------------------------------------------|
B|--3------5------8------7------3------5------8------7-|
G|--0------0------0------0------0------0------0------0-|
D|-----------------------------------------------------|
A|--2------3------7------5------2------3------7------5-|
E|-----------------------------------------------------|

   Setting fire to our insides for fun...                 Collecting
e|------------------------------------------------------------------------|
B|--------3-------3/5-------5------5/8--------8------8\7------7-------7\3-|
G|----0-------0---------0-------0---------0-------0--------0-------0------|
D|------------------------------------------------------------------------|
A|--2---2---2---2-----3---3---3---3-----7---7---7---7----5---5---5---5----|
E|------------------------------------------------------------------------|

    Names of the lovers that went wrong…
e|------------------------------------------------------------------------|
B|--------3-------3/5-------5------5/8--------8------8\7------7-------7/8-|
G|----0-------0---------0-------0---------0-------0--------0-------0------|
D|------------------------------------------------------------------------|
A|--2---2---2---2-----3---3---3---3-----7---7---7---7----5---5---5---5----|
E|------------------------------------------------------------------------|
   
e|--------------------------------------------------------------------|
B|---------8-------8-------8-------------5------5/7------7------7/8---|
G|-----0-------0-------0-------0-----0-------0-------0-------0--------|
D|--------------------------------------------------------------------|
A|---7---7---7---7---7---7---7---2-3---3---3---3---5---5---5---5------|
E|--------------------------------------------------------------------|
(last line 4x, then back to the beginning and so on.....
The bridge has the same pattern like the verse)
Comments