Datsuns - Sittin Pretty Chords & Tabs

 

Sittin Pretty Chords & Tabs

Datsuns Chords & Tabs

Version: 1 Type: Tab 0 ratings
1 star 2 stars 3 stars 4 stars 5 stars
comments

Sittin Pretty Tab

   
SITTIN' PRETTY BY THE DATSUNS
TRACK 1 ON THE ALBUM THE DATSUNS
TABBED BY HARRY 9/2/03

SEEN AS NO ONE TABBED THIS SONG BEFORE ME HERE IT IS. I'M PRETTY
SURE ITS BANG ON. ITS NOT TOO DIFFICULT JUST LISTEN TO THE SONG
FOR RYTHYM. ITS A BELTER OF A SONG SO ENJOY! 

CHORDS
  | E5 | D5 | C5 |
-------------------
e |    |    |    |
B |    |    |    |
G | 9  | 7  |    |
D | 9  | 7  | 7  |
A | 7  | 5  | 7  |
e |    |    | 5  |


Main riff at 0.00 gtr.1(christian)
e|-------------------------------------------------------
B|-------------------------------------------------------
G|-------------12-14b16r14p12----------------------------
D|------12h14------------------14-12---------------------
A|--14--------------------------------14-----------------
E|-------------------------------------------------------

gtr.2(phil) enters playing above riff at 0.13

Chorus at 0.37 gtrs 1 & 2

e|-------------------------------------------------------
B|-------------------------------------------------------
G|----7--------------------------------------------------
D|----7-----------------7--------------------------------
A|----5-----------------7--------------------------------
E|----------------------5--------------------------------
    hazy days                    on my mind

Solo at 1.14 gtr.1
 
    E5                                       
e|-------------------------------------------------------
B|-15b-15b-15b-15b-15b-15b-15p12-------------------------
G|--------------------------------14-12-14b--p12---------
D|------------------------------------------------14-----
A|-------------------------------------------------------
E|-------------------------------------------------------
[ Tab from: http://www.guitartabs.cc/tabs/d/datsuns/sittin_pretty_tab.html ]
e|-15b-15b-15-12-15-12-15b-15----12-15p12-----12---------
B|----------------------------------------15------15-----
G|-------------------------------------------------------
D|-------------------------------------------------------
A|-------------------------------------------------------
E|-------------------------------------------------------

                             D5               a5 
e|---------------------------15b-15-12-------------------
B|-p12-----15-12-15b--------------------15-12-15bp12-----
G|-----14------------------------------------------------
D|--------------------14-14------------------------------
A|-------------------------------------------------------
E|-------------------------------------------------------
 
          E5  D5               a5           E5    
e|------------15b-15-12--------------------------15b-----
B|-15-12-15b-------------15-12-15bp12-15-12-15b----------
G|-------------------------------------------------------
D|-------------------------------------------------------
A|-------------------------------------------------------
E|-------------------------------------------------------

Bridge at 1.38 gtr.1
gtr.2 hits those chords once stacatto
    a5                                a5
e|-------------------------------------------------------
B|-------------------------------------------------------
G|-------------12-14b16r14p12----------------------------
D|------12h14------------------14-12---------------------
A|--14--------------------------------14-----------------
E|-------------------------------------------------------

Outro Solo at 2.15 gtr.1(with wah)
gtr.2 plays main riff

e|-------------------------------------------------------
B|-15p12--15p12--15p12--15p12--15p12--15p12-------------- X4
G|------14-----14-----14-----14-----14-----14-12---------  
D|-------------------------------------------------------
A|-------------------------------------------------------
E|-------------------------------------------------------

e|-------------------------------------------------------
B|-------------------------------------------------------
G|-14b----13b---11b-10b-9b------------------------------- to fade out
D|-------------------------------------------------------
A|-------------------------------------------------------
E|-------------------------------------------------------
Comments