Datsuns - In Love Chords & Tabs

 

In Love Chords & Tabs

Datsuns Chords & Tabs

Version: 5 Type: Tab 0 ratings
1 star 2 stars 3 stars 4 stars 5 stars
comments

In Love Tab

   
Song : One Love
Artist : THE DATSUNS
Album : The Datsuns
Tuning : standard

Intro
*****

Guitar1
    G A# C           C A# F  C/F F
E:----------    E:--------------------|
B:----------    B:--------------------|
G:----------    G:--------------------|
D:----------     D:-------------------|
A:--5-8-10-- X3    A:--10-8-3--10/3-3-|
E:--3-6--8---    E:---8-6-1---8/1-1---|

2nd guitarist slides down scale whenthe 1st guitarist reaches the
C position in the second block

INTRO/CHORUS
------------
Both guitars
    G A# C           C A# F
E:----------    E:-------------|
B:----------    B:-------------|
G:----------    G:-------------|
D:----------     D:------------|
A:--5-8-10-- X3    A:--10-8-3--|
E:--3-6--8---    E:---8-6-1----|

REPEAT TWICE

Guitar3 (comes in with Guitar2)
E:----                E:----------------|
B:----                B:----------------|
G:----                G:----------------|
D:----                D:----------------|
A:--5-                A:--3-10----------|
E:--3- repeat 16times then     E:--1--8-|

REPEAT TWICE then...

    G A# C           C A# F  C/F F
E:----------    E:--------------------|
B:----------    B:--------------------|
G:----------    G:--------------------|
D:----------     D:-------------------|
A:--5-8-10-- X3    A:--10-8-3--10/3-3-|
E:--3-6--8---    E:---8-6-1---8/1-1---|

TWICE then
[ Tab from: http://www.guitartabs.cc/tabs/d/datsuns/in_love_tab_ver_5.html ]
Guitar3 (comes in with Guitar2)
E:----                E:----------------|
B:----                B:----------------|
G:----                G:----------------|
D:----                D:----------------|
A:--5-                A:--3-10----------|
E:--3- repeat 16times then     E:--1--8-|

TWICE then

    G A# C           C A# F  C/F F
E:----------    E:--------------------|
B:----------    B:--------------------|
G:----------    G:--------------------|
D:----------     D:-------------------|
A:--5-8-10-- X3    A:--10-8-3--10/3-3-|
E:--3-6--8---    E:---8-6-1---8/1-1---|

then

E:------------------|
B:------------------|
G:------------------|
D:------------------|
A:--5-hold-10-hold--| X2
E:--3-------8-------|

NOW SOLO
im not even gonna try to pretend to know this solo so wait til santa
tabs it for ya...

whilst the solo is going on this happens...

E:----------------------------------|
B:----------------------------------|
G:----------------------------------|
D:----------------------------------|
A:--5-8-10--10-8-3--5-8-10-3-10-8---|
E:--3-6--8---8-6-1--3-6--8-1--8-6---|  x4

then

E:-----------------|
B:-----------------|
G:-----------------|
D:-----------------|
A:--5--10--5--10-8-|12
E:--3---8--3---8-6-|10

then

    G A# C           C A# F
E:----------    E:--------------|
B:----------    B:--------------|
G:----------    G:--------------|
D:----------     D:-------------|
A:--5-8-10-- X3    A:--10-8-3---|
E:--3-6--8---    E:---8-6-1-----|


E:--------------------------|
B:--------------------------|
G:--------------------------|
D:--------------------------|
A:--5-10-12-5--5-10-8-3-----|
E:--3--8-10-3--3--8-6-1-----|

twice
n thats it :)

hope that made sense
need any help then contact me on where_is_my_trolley@hotmail.com

i saw these guys at leeds and i was amazed, so this is for john
this tab!
cliff
Comments