Datsuns - In Love Chords & Tabs

 

In Love Chords & Tabs

Datsuns Chords & Tabs

Version: 3 Type: Tab 0 ratings
1 star 2 stars 3 stars 4 stars 5 stars
comments

In Love Tab

   
artist - the datsuns
title  - in love
album  - the datsuns
tab by - marc smith (marc_wolves@yahoo.com)

main riff / intro

e\-------------------------------------------------|
B\-------------------------------------------------|
G\-------------------------------------------------|
D\-------------------------------------------------|
A\------1-3-------1-3------1-3-4-3-1---------------|
E\--3-3-------3-3------3-3-----------3-10\3--------|

[ Tab from: http://www.guitartabs.cc/tabs/d/datsuns/in_love_tab_ver_3.html ]
e\-------------------------------------------------|
B\-------------------------------------------------|
G\-------------------------------------------------|
D\-5-5-8-10-----5-5-8-10-----5-5-8-10-10H11P10-8-5-|
A\-5-5-8-10-----5-5-8-10-----5-5-8-10-10H11P10-8-5-|
E\-3-3-6-8------3-3-6-8------3-3-6-8--8-H-9P-8-6-3-|

verse is PALM MUTED G then

G          F      C
so cool

the whole song is the same though
it does change key for part of the song (the solo i think?!)
instead of the G Bb C notes on the main riff it changes to
the high C D# and F notes

think that pretty much it?!?
Comments